  0
SECTION
  2
HEADER
  9
$ACADVER
  1
AC1015
  9
$ACADMAINTVER
 70
     6
  9
$DWGCODEPAGE
  3
ANSI_1251
  9
$INSBASE
 10
0.0
 20
0.0
 30
0.0
  9
$EXTMIN
 10
0.0
 20
0.0
 30
0.0
  9
$EXTMAX
 10
16.5354330709
 20
11.6929133858
 30
0.0
  9
$LIMMIN
 10
0.0
 20
0.0
  9
$LIMMAX
 10
16.5354330709
 20
11.6929133858
  9
$ORTHOMODE
 70
     0
  9
$REGENMODE
 70
     1
  9
$FILLMODE
 70
     1
  9
$QTEXTMODE
 70
     0
  9
$MIRRTEXT
 70
     1
  9
$LTSCALE
 40
1.0
  9
$ATTMODE
 70
     1
  9
$TEXTSIZE
 40
0.1377952756
  9
$TRACEWID
 40
0.05
  9
$TEXTSTYLE
  7
Standard
  9
$CLAYER
  8
0
  9
$CELTYPE
  6
ByLayer
  9
$CECOLOR
 62
   256
  9
$CELTSCALE
 40
1.0
  9
$DISPSILH
 70
     0
  9
$DIMSCALE
 40
1.0
  9
$DIMASZ
 40
0.13
  9
$DIMEXO
 40
0.1
  9
$DIMDLI
 40
0.38
  9
$DIMRND
 40
0.0
  9
$DIMDLE
 40
0.0
  9
$DIMEXE
 40
0.0393700787
  9
$DIMTP
 40
0.0
  9
$DIMTM
 40
0.0
  9
$DIMTXT
 40
0.1377952756
  9
$DIMCEN
 40
0.09
  9
$DIMTSZ
 40
0.0
  9
$DIMTOL
 70
     0
  9
$DIMLIM
 70
     0
  9
$DIMTIH
 70
     1
  9
$DIMTOH
 70
     1
  9
$DIMSE1
 70
     0
  9
$DIMSE2
 70
     0
  9
$DIMTAD
 70
     1
  9
$DIMZIN
 70
     0
  9
$DIMBLK
  1

  9
$DIMASO
 70
     1
  9
$DIMSHO
 70
     1
  9
$DIMPOST
  1

  9
$DIMAPOST
  1

  9
$DIMALT
 70
     0
  9
$DIMALTD
 70
     2
  9
$DIMALTF
 40
25.4
  9
$DIMLFAC
 40
1.0
  9
$DIMTOFL
 70
     0
  9
$DIMTVP
 40
0.0
  9
$DIMTIX
 70
     0
  9
$DIMSOXD
 70
     0
  9
$DIMSAH
 70
     0
  9
$DIMBLK1
  1

  9
$DIMBLK2
  1

  9
$DIMSTYLE
  2
Standard
  9
$DIMCLRD
 70
     0
  9
$DIMCLRE
 70
     0
  9
$DIMCLRT
 70
     0
  9
$DIMTFAC
 40
1.0
  9
$DIMGAP
 40
0.06
  9
$DIMJUST
 70
     0
  9
$DIMSD1
 70
     0
  9
$DIMSD2
 70
     0
  9
$DIMTOLJ
 70
     1
  9
$DIMTZIN
 70
     0
  9
$DIMALTZ
 70
     0
  9
$DIMALTTZ
 70
     0
  9
$DIMUPT
 70
     0
  9
$DIMDEC
 70
     2
  9
$DIMTDEC
 70
     2
  9
$DIMALTU
 70
     2
  9
$DIMALTTD
 70
     2
  9
$DIMTXSTY
  7
Standard
  9
$DIMAUNIT
 70
     0
  9
$DIMADEC
 70
     2
  9
$DIMALTRND
 40
0.0
  9
$DIMAZIN
 70
     0
  9
$DIMDSEP
 70
    46
  9
$DIMATFIT
 70
     3
  9
$DIMFRAC
 70
     0
  9
$DIMLDRBLK
  1

  9
$DIMLUNIT
 70
     2
  9
$DIMLWD
 70
    -2
  9
$DIMLWE
 70
    -2
  9
$DIMTMOVE
 70
     0
  9
$LUNITS
 70
     2
  9
$LUPREC
 70
     2
  9
$SKETCHINC
 40
0.1
  9
$FILLETRAD
 40
0.5
  9
$AUNITS
 70
     0
  9
$AUPREC
 70
     2
  9
$MENU
  1
.
  9
$ELEVATION
 40
0.0
  9
$PELEVATION
 40
0.0
  9
$THICKNESS
 40
0.0
  9
$LIMCHECK
 70
     0
  9
$CHAMFERA
 40
0.0
  9
$CHAMFERB
 40
0.0
  9
$CHAMFERC
 40
0.0
  9
$CHAMFERD
 40
0.0
  9
$SKPOLY
 70
     0
  9
$TDCREATE
 40
2458218.777208507
  9
$TDUCREATE
 40
2458218.61054184
  9
$TDUPDATE
 40
2458218.777210069
  9
$TDUUPDATE
 40
2458218.610543403
  9
$TDINDWG
 40
0.0000000116
  9
$TDUSRTIMER
 40
0.0000000116
  9
$USRTIMER
 70
     1
  9
$ANGBASE
 50
0.0
  9
$ANGDIR
 70
     0
  9
$PDMODE
 70
     0
  9
$PDSIZE
 40
-1.0
  9
$PLINEWID
 40
0.0
  9
$SPLFRAME
 70
     0
  9
$SPLINETYPE
 70
     6
  9
$SPLINESEGS
 70
     8
  9
$HANDSEED
  5
2B8
  9
$SURFTAB1
 70
     6
  9
$SURFTAB2
 70
     6
  9
$SURFTYPE
 70
     6
  9
$SURFU
 70
     6
  9
$SURFV
 70
     6
  9
$UCSBASE
  2

  9
$UCSNAME
  2

  9
$UCSORG
 10
0.0
 20
0.0
 30
0.0
  9
$UCSXDIR
 10
1.0
 20
0.0
 30
0.0
  9
$UCSYDIR
 10
0.0
 20
1.0
 30
0.0
  9
$UCSORTHOREF
  2

  9
$UCSORTHOVIEW
 70
     0
  9
$UCSORGTOP
 10
0.0
 20
0.0
 30
0.0
  9
$UCSORGBOTTOM
 10
0.0
 20
0.0
 30
0.0
  9
$UCSORGLEFT
 10
0.0
 20
0.0
 30
0.0
  9
$UCSORGRIGHT
 10
0.0
 20
0.0
 30
0.0
  9
$UCSORGFRONT
 10
0.0
 20
0.0
 30
0.0
  9
$UCSORGBACK
 10
0.0
 20
0.0
 30
0.0
  9
$PUCSBASE
  2

  9
$PUCSNAME
  2

  9
$PUCSORG
 10
0.0
 20
0.0
 30
0.0
  9
$PUCSXDIR
 10
1.0
 20
0.0
 30
0.0
  9
$PUCSYDIR
 10
0.0
 20
1.0
 30
0.0
  9
$PUCSORTHOREF
  2

  9
$PUCSORTHOVIEW
 70
     0
  9
$PUCSORGTOP
 10
0.0
 20
0.0
 30
0.0
  9
$PUCSORGBOTTOM
 10
0.0
 20
0.0
 30
0.0
  9
$PUCSORGLEFT
 10
0.0
 20
0.0
 30
0.0
  9
$PUCSORGRIGHT
 10
0.0
 20
0.0
 30
0.0
  9
$PUCSORGFRONT
 10
0.0
 20
0.0
 30
0.0
  9
$PUCSORGBACK
 10
0.0
 20
0.0
 30
0.0
  9
$USERI1
 70
     0
  9
$USERI2
 70
     0
  9
$USERI3
 70
     0
  9
$USERI4
 70
     0
  9
$USERI5
 70
     0
  9
$USERR1
 40
0.0
  9
$USERR2
 40
0.0
  9
$USERR3
 40
0.0
  9
$USERR4
 40
0.0
  9
$USERR5
 40
0.0
  9
$WORLDVIEW
 70
     1
  9
$SHADEDGE
 70
     3
  9
$SHADEDIF
 70
    70
  9
$TILEMODE
 70
     1
  9
$MAXACTVP
 70
    64
  9
$PINSBASE
 10
0.0
 20
0.0
 30
0.0
  9
$PLIMCHECK
 70
     0
  9
$PEXTMIN
 10
1.0000000000E+20
 20
1.0000000000E+20
 30
1.0000000000E+20
  9
$PEXTMAX
 10
-1.0000000000E+20
 20
-1.0000000000E+20
 30
-1.0000000000E+20
  9
$PLIMMIN
 10
0.0
 20
0.0
  9
$PLIMMAX
 10
12.0
 20
9.0
  9
$UNITMODE
 70
     0
  9
$VISRETAIN
 70
     1
  9
$PLINEGEN
 70
     0
  9
$PSLTSCALE
 70
     1
  9
$TREEDEPTH
 70
  3020
  9
$CMLSTYLE
  2
Standard
  9
$CMLJUST
 70
     0
  9
$CMLSCALE
 40
1.0
  9
$PROXYGRAPHICS
 70
     1
  9
$MEASUREMENT
 70
     0
  9
$CELWEIGHT
370
    -1
  9
$ENDCAPS
280
     0
  9
$JOINSTYLE
280
     0
  9
$LWDISPLAY
290
     1
  9
$INSUNITS
 70
     1
  9
$HYPERLINKBASE
  1

  9
$STYLESHEET
  1

  9
$XEDIT
290
     1
  9
$CEPSNTYPE
380
     0
  9
$PSTYLEMODE
290
     1
  9
$FINGERPRINTGUID
  2
{A3B5F2F8-B480-47D4-9656-B86FC91ABA1A}
  9
$VERSIONGUID
  2
{FAEB1C32-E019-11D5-929B-00C0DF256EC4}
  9
$EXTNAMES
290
     1
  9
$PSVPSCALE
 40
0.0
  9
$OLESTARTUP
290
     0
  0
ENDSEC
  0
SECTION
  2
CLASSES
  0
CLASS
  1
ACDBDICTIONARYWDFLT
  2
AcDbDictionaryWithDefault
  3
ObjectDBX Classes
 90
        0
280
     0
281
     0
  0
CLASS
  1
VISUALSTYLE
  2
AcDbVisualStyle
  3
ObjectDBX Classes
 90
     4095
280
     0
281
     0
  0
CLASS
  1
MATERIAL
  2
AcDbMaterial
  3
ObjectDBX Classes
 90
     1153
280
     0
281
     0
  0
CLASS
  1
SCALE
  2
AcDbScale
  3
ObjectDBX Classes
 90
     1153
280
     0
281
     0
  0
CLASS
  1
TABLESTYLE
  2
AcDbTableStyle
  3
ObjectDBX Classes
 90
     4095
280
     0
281
     0
  0
CLASS
  1
MLEADERSTYLE
  2
AcDbMLeaderStyle
  3
ACDB_MLEADERSTYLE_CLASS
 90
     4095
280
     0
281
     0
  0
CLASS
  1
SUN
  2
AcDbSun
  3
SCENEOE
 90
     1153
280
     0
281
     0
  0
CLASS
  1
ACDBPLACEHOLDER
  2
AcDbPlaceHolder
  3
ObjectDBX Classes
 90
        0
280
     0
281
     0
  0
CLASS
  1
LAYOUT
  2
AcDbLayout
  3
ObjectDBX Classes
 90
        0
280
     0
281
     0
  0
ENDSEC
  0
SECTION
  2
TABLES
  0
TABLE
  2
VPORT
  5
8
330
0
100
AcDbSymbolTable
 70
     1
  0
VPORT
  5
29
330
8
100
AcDbSymbolTableRecord
100
AcDbViewportTableRecord
  2
*Active
 70
     0
 10
0.0
 20
0.0
 11
1.0
 21
1.0
 12
8.2677165354
 22
5.8464566929
 13
0.0
 23
0.0
 14
0.5
 24
0.5
 15
0.5
 25
0.5
 16
0.0
 26
0.0
 36
1.0
 17
0.0
 27
0.0
 37
0.0
 40
11.6929133858
 41
1.4141414141
 42
50.0
 43
0.0
 44
0.0
 50
0.0
 51
0.0
 71
     0
 72
  2000
 73
     1
 74
     3
 75
     0
 76
     0
 77
     0
 78
     0
281
     0
 65
     1
110
0.0
120
0.0
130
0.0
111
1.0
121
0.0
131
0.0
112
0.0
122
1.0
132
0.0
 79
     0
146
0.0
  0
ENDTAB
  0
TABLE
  2
LTYPE
  5
5
330
0
100
AcDbSymbolTable
 70
     6
  0
LTYPE
  5
14
330
5
100
AcDbSymbolTableRecord
100
AcDbLinetypeTableRecord
  2
ByBlock
 70
     0
  3

 72
    65
 73
     0
 40
0.0
  0
LTYPE
  5
15
330
5
100
AcDbSymbolTableRecord
100
AcDbLinetypeTableRecord
  2
ByLayer
 70
     0
  3

 72
    65
 73
     0
 40
0.0
  0
LTYPE
  5
16
330
5
100
AcDbSymbolTableRecord
100
AcDbLinetypeTableRecord
  2
Continuous
 70
     0
  3
Solid line
 72
    65
 73
     0
 40
0.0
  0
LTYPE
  5
6E
330
5
100
AcDbSymbolTableRecord
100
AcDbLinetypeTableRecord
  2
HIDDEN
 70
     0
  3
Hidden __ __ __ __ __ __ __ __ __ __ __ __ __ __
 72
    65
 73
     2
 40
0.075
 49
0.05
 74
     0
 49
-0.025
 74
     0
  0
LTYPE
  5
6F
330
5
100
AcDbSymbolTableRecord
100
AcDbLinetypeTableRecord
  2
PHANTOM
 70
     0
  3
Phantom ______  __  __  ______  __  __  ______
 72
    65
 73
     6
 40
0.5
 49
0.25
 74
     0
 49
-0.05
 74
     0
 49
0.05
 74
     0
 49
-0.05
 74
     0
 49
0.05
 74
     0
 49
-0.05
 74
     0
  0
LTYPE
  5
70
330
5
100
AcDbSymbolTableRecord
100
AcDbLinetypeTableRecord
  2
CENTER
 70
     0
  3
Center ____ _ ____ _ ____ _ ____ _ ____ _ ____
 72
    65
 73
     4
 40
0.4
 49
0.25
 74
     0
 49
-0.05
 74
     0
 49
0.05
 74
     0
 49
-0.05
 74
     0
  0
LTYPE
  5
71
330
5
100
AcDbSymbolTableRecord
100
AcDbLinetypeTableRecord
  2
CENTERX2
 70
     0
  3
Center (2x) ________  __  ________  __  _____
 72
    65
 73
     4
 40
0.8
 49
0.5
 74
     0
 49
-0.1
 74
     0
 49
0.1
 74
     0
 49
-0.1
 74
     0
  0
LTYPE
  5
72
330
5
100
AcDbSymbolTableRecord
100
AcDbLinetypeTableRecord
  2
DOT2
 70
     0
  3
Dot (.5x) ........................................
 72
    65
 73
     2
 40
0.025
 49
0.0
 74
     0
 49
-0.025
 74
     0
  0
ENDTAB
  0
TABLE
  2
LAYER
  5
2
330
0
100
AcDbSymbolTable
 70
     5
  0
LAYER
  5
10
330
2
100
AcDbSymbolTableRecord
100
AcDbLayerTableRecord
  2
0
 70
     0
 62
     7
  6
Continuous
370
    -3
390
F
  0
LAYER
  5
73
330
2
100
AcDbSymbolTableRecord
100
AcDbLayerTableRecord
  2
FORMAT
 70
     0
 62
     7
  6
Continuous
370
    -3
390
F
  0
LAYER
  5
74
330
2
100
AcDbSymbolTableRecord
100
AcDbLayerTableRecord
  2
SLD-0
 70
     0
 62
   179
  6
Continuous
370
    -3
390
F
  0
LAYER
  5
75
330
2
100
AcDbSymbolTableRecord
100
AcDbLayerTableRecord
  2
AM_6
 70
     0
 62
     2
  6
Continuous
370
    35
390
F
  0
LAYER
  5
76
330
2
100
AcDbSymbolTableRecord
100
AcDbLayerTableRecord
  2
THINM
 70
     0
 62
     6
  6
Continuous
370
    -3
390
F
  0
ENDTAB
  0
TABLE
  2
STYLE
  5
3
330
0
100
AcDbSymbolTable
 70
     5
  0
STYLE
  5
11
330
3
100
AcDbSymbolTableRecord
100
AcDbTextStyleTableRecord
  2
Standard
 70
     0
 40
0.0
 41
1.0
 50
0.0
 71
     0
 42
0.1377952756
  3
txt
  4

  0
STYLE
  5
7D
330
3
100
AcDbSymbolTableRecord
100
AcDbTextStyleTableRecord
  2
SLDTEXTSTYLE0
 70
     0
 40
0.0
 41
0.605
 50
0.0
 71
     0
 42
0.1377952756
  3
TXT
  4

  0
STYLE
  5
166
330
3
100
AcDbSymbolTableRecord
100
AcDbTextStyleTableRecord
  2
SLDTEXTSTYLE1
 70
     0
 40
0.0
 41
0.75
 50
0.0
 71
     0
 42
0.1377952756
  3
TXT
  4

  0
STYLE
  5
16B
330
3
100
AcDbSymbolTableRecord
100
AcDbTextStyleTableRecord
  2
SLDTEXTSTYLE2
 70
     0
 40
0.0
 41
0.6666666667
 50
0.0
 71
     0
 42
0.1377952756
  3
TXT
  4

  0
STYLE
  5
204
330
3
100
AcDbSymbolTableRecord
100
AcDbTextStyleTableRecord
  2
SLDTEXTSTYLE3
 70
     0
 40
0.0
 41
0.6875
 50
0.0
 71
     0
 42
0.1377952756
  3
TXT
  4

  0
ENDTAB
  0
TABLE
  2
VIEW
  5
6
330
0
100
AcDbSymbolTable
 70
     0
  0
ENDTAB
  0
TABLE
  2
UCS
  5
7
330
0
100
AcDbSymbolTable
 70
     0
  0
ENDTAB
  0
TABLE
  2
APPID
  5
9
330
0
100
AcDbSymbolTable
 70
     1
  0
APPID
  5
12
330
9
100
AcDbSymbolTableRecord
100
AcDbRegAppTableRecord
  2
ACAD
 70
     0
  0
ENDTAB
  0
TABLE
  2
DIMSTYLE
  5
A
330
0
100
AcDbSymbolTable
 70
     1
100
AcDbDimStyleTable
  0
DIMSTYLE
105
27
330
A
100
AcDbSymbolTableRecord
100
AcDbDimStyleTableRecord
  2
Standard
 70
     0
178
     0
340
11
  0
ENDTAB
  0
TABLE
  2
BLOCK_RECORD
  5
1
330
0
100
AcDbSymbolTable
 70
     9
  0
BLOCK_RECORD
  5
1F
330
1
100
AcDbSymbolTableRecord
100
AcDbBlockTableRecord
  2
*Model_Space
340
22
  0
BLOCK_RECORD
  5
1B
330
1
100
AcDbSymbolTableRecord
100
AcDbBlockTableRecord
  2
*Paper_Space
340
1E
  0
BLOCK_RECORD
  5
23
330
1
100
AcDbSymbolTableRecord
100
AcDbBlockTableRecord
  2
*Paper_Space0
340
26
  0
BLOCK_RECORD
  5
77
330
1
100
AcDbSymbolTableRecord
100
AcDbBlockTableRecord
  2
Block3
340
0
102
{BLKREFS
331
2A1
102
}
  0
BLOCK_RECORD
  5
7A
330
1
100
AcDbSymbolTableRecord
100
AcDbBlockTableRecord
  2
SW_NOTE_0
340
0
102
{BLKREFS
331
82
102
}
  0
BLOCK_RECORD
  5
83
330
1
100
AcDbSymbolTableRecord
100
AcDbBlockTableRecord
  2
SW_NOTE_1
340
0
102
{BLKREFS
331
89
102
}
  0
BLOCK_RECORD
  5
8A
330
1
100
AcDbSymbolTableRecord
100
AcDbBlockTableRecord
  2
Block9
340
0
102
{BLKREFS
331
29D
102
}
  0
BLOCK_RECORD
  5
F6
330
1
100
AcDbSymbolTableRecord
100
AcDbBlockTableRecord
  2
Block1
340
0
102
{BLKREFS
331
29E
102
}
  0
BLOCK_RECORD
  5
170
330
1
100
AcDbSymbolTableRecord
100
AcDbBlockTableRecord
  2
Block13_
340
0
102
{BLKREFS
331
29F
102
}
  0
BLOCK_RECORD
  5
206
330
1
100
AcDbSymbolTableRecord
100
AcDbBlockTableRecord
  2
Block14_
340
0
102
{BLKREFS
331
2A0
102
}
  0
BLOCK_RECORD
  5
2A2
330
1
100
AcDbSymbolTableRecord
100
AcDbBlockTableRecord
  2
SW_TABLEANNOTATION_0
340
0
102
{BLKREFS
331
2B7
102
}
  0
ENDTAB
  0
ENDSEC
  0
SECTION
  2
BLOCKS
  0
BLOCK
  5
20
330
1F
100
AcDbEntity
  8
0
100
AcDbBlockBegin
  2
*Model_Space
 70
     0
 10
0.0
 20
0.0
 30
0.0
  3
*Model_Space
  1

  0
ENDBLK
  5
21
330
1F
100
AcDbEntity
  8
0
100
AcDbBlockEnd
  0
BLOCK
  5
1C
330
1B
100
AcDbEntity
 67
     1
  8
0
100
AcDbBlockBegin
  2
*Paper_Space
 70
     0
 10
0.0
 20
0.0
 30
0.0
  3
*Paper_Space
  1

  0
ENDBLK
  5
1D
330
1B
100
AcDbEntity
 67
     1
  8
0
100
AcDbBlockEnd
  0
BLOCK
  5
24
330
23
100
AcDbEntity
  8
0
100
AcDbBlockBegin
  2
*Paper_Space0
 70
     0
 10
0.0
 20
0.0
 30
0.0
  3
*Paper_Space0
  1

  0
ENDBLK
  5
25
330
23
100
AcDbEntity
  8
0
100
AcDbBlockEnd
  0
BLOCK
  5
78
330
77
100
AcDbEntity
  8
0
100
AcDbBlockBegin
  2
Block3
 70
     0
 10
0.0
 20
0.0
 30
0.0
  3
Block3
  1

  0
INSERT
  5
82
330
77
100
AcDbEntity
  8
FORMAT
 62
     7
100
AcDbBlockReference
  2
SW_NOTE_0
 10
11.9801356183
 20
0.7426152712
 30
0.0
  0
INSERT
  5
89
330
77
100
AcDbEntity
  8
FORMAT
 62
     7
100
AcDbBlockReference
  2
SW_NOTE_1
 10
2.4173866861
 20
0.6725994797
 30
0.0
  0
INSERT
  5
29D
330
77
100
AcDbEntity
  8
0
  6
Continuous
 62
     7
100
AcDbBlockReference
  2
Block9
 10
0.0
 20
0.0323394931
 30
0.0
  0
ENDBLK
  5
79
330
77
100
AcDbEntity
  8
0
100
AcDbBlockEnd
  0
BLOCK
  5
7B
330
7A
100
AcDbEntity
  8
0
100
AcDbBlockBegin
  2
SW_NOTE_0
 70
     0
 10
0.0
 20
0.0
 30
0.0
  3
SW_NOTE_0
  1

  0
MTEXT
  5
7E
330
7A
100
AcDbEntity
  8
FORMAT
 62
     0
100
AcDbMText
 10
3.5107421875
 20
0.2014168343
 30
0.0
 40
0.15625
 41
0.0
 71
     3
 72
     1
  1
Panel to Panel LED With Lip - Details
  7
SLDTEXTSTYLE0
 73
     1
 44
1.0
  0
MTEXT
  5
7F
330
7A
100
AcDbEntity
  8
FORMAT
 62
     0
100
AcDbMText
 10
3.5060767982
 20
-0.0462865908
 30
0.0
 40
0.15625
 41
0.0
 71
     3
 72
     1
  1
Available for 1/2", 3/4" & 1" Panels
  7
SLDTEXTSTYLE0
 73
     1
 44
1.0
  0
MTEXT
  5
80
330
7A
100
AcDbEntity
  8
FORMAT
 62
     0
100
AcDbMText
 10
3.522858852
 20
-0.2939899977
 30
0.0
 40
0.15625
 41
0.0
 71
     3
 72
     1
  1
Custom Anodized and Powder Coated Finishes Available
  7
SLDTEXTSTYLE0
 73
     1
 44
1.0
  0
MTEXT
  5
81
330
7A
100
AcDbEntity
  8
FORMAT
 62
     0
100
AcDbMText
 10
3.478732752
 20
-0.5416934045
 30
0.0
 40
0.15625
 41
0.0
 71
     3
 72
     1
  1
DWPanels.com
  7
SLDTEXTSTYLE0
 73
     1
 44
1.0
  0
ENDBLK
  5
7C
330
7A
100
AcDbEntity
  8
0
100
AcDbBlockEnd
  0
BLOCK
  5
84
330
83
100
AcDbEntity
  8
0
100
AcDbBlockBegin
  2
SW_NOTE_1
 70
     0
 10
0.0
 20
0.0
 30
0.0
  3
SW_NOTE_1
  1

  0
MTEXT
  5
86
330
83
100
AcDbEntity
  8
FORMAT
 62
     0
100
AcDbMText
 10
0.0
 20
0.2417002012
 30
0.0
 40
0.1875
 41
0.0
 71
     1
 72
     1
  1
Decorative
  7
SLDTEXTSTYLE0
 73
     1
 44
1.0
  0
MTEXT
  5
87
330
83
100
AcDbEntity
  8
FORMAT
 62
     0
100
AcDbMText
 10
0.0
 20
-0.047669881
 30
0.0
 40
0.1875
 41
0.0
 71
     1
 72
     1
  1
Wall
  7
SLDTEXTSTYLE0
 73
     1
 44
1.0
  0
MTEXT
  5
88
330
83
100
AcDbEntity
  8
FORMAT
 62
     0
100
AcDbMText
 10
0.0
 20
-0.3370399631
 30
0.0
 40
0.1875
 41
0.0
 71
     1
 72
     1
  1
Panels     Systems
  7
SLDTEXTSTYLE0
 73
     1
 44
1.0
  0
ENDBLK
  5
85
330
83
100
AcDbEntity
  8
0
100
AcDbBlockEnd
  0
BLOCK
  5
8B
330
8A
100
AcDbEntity
  8
0
100
AcDbBlockBegin
  2
Block9
 70
     0
 10
0.0
 20
0.0
 30
0.0
  3
Block9
  1

  0
LINE
  5
8D
330
8A
100
AcDbEntity
  8
0
  6
Continuous
 62
     7
370
    18
100
AcDbLine
 10
0.0
 20
1.039171875
 30
0.0
 11
15.4944999933
 21
1.039171875
 31
0.0
  0
SPLINE
  5
8E
330
8A
100
AcDbEntity
  8
0
  6
Continuous
 62
     8
370
     0
100
AcDbSpline
210
0.0
220
0.0
230
1.0
 70
    24
 71
     3
 72
     8
 73
     4
 74
     0
 42
0.000000001
 43
0.00000001
 40
37.0
 40
37.0
 40
37.0
 40
37.0
 40
38.0
 40
38.0
 40
38.0
 40
38.0
 10
1.771964220772605
 20
0.0264862735488503
 30
0.0
 10
1.771964220772605
 20
0.1159242183039175
 30
0.0
 10
1.771964220772605
 20
0.2037081062473845
 30
0.0
 10
1.771964220772605
 20
0.2944888147063214
 30
0.0
  0
SPLINE
  5
8F
330
8A
100
AcDbEntity
  8
0
  6
Continuous
 62
     8
370
     0
100
AcDbSpline
210
0.0
220
0.0
230
1.0
 70
    24
 71
     3
 72
     8
 73
     4
 74
     0
 42
0.000000001
 43
0.00000001
 40
36.0
 40
36.0
 40
36.0
 40
36.0
 40
37.0
 40
37.0
 40
37.0
 40
37.0
 10
1.624299249855472
 20
0.0264862735488503
 30
0.0
 10
1.674864746341027
 20
0.0264862735488503
 30
0.0
 10
1.722299791426324
 20
0.0264862735488503
 30
0.0
 10
1.771964220772605
 20
0.0264862735488503
 30
0.0
  0
SPLINE
  5
90
330
8A
100
AcDbEntity
  8
0
  6
Continuous
 62
     8
370
     0
100
AcDbSpline
210
0.0
220
0.0
230
1.0
 70
    24
 71
     3
 72
     8
 73
     4
 74
     0
 42
0.000000001
 43
0.00000001
 40
35.0
 40
35.0
 40
35.0
 40
35.0
 40
36.0
 40
36.0
 40
36.0
 40
36.0
 10
1.624299249855472
 20
0.3947778716284157
 30
0.0
 10
1.624299249855472
 20
0.2719112658129299
 30
0.0
 10
1.624299249855472
 20
0.1490446215756984
 30
0.0
 10
1.624299249855472
 20
0.0264862735488503
 30
0.0
  0
SPLINE
  5
91
330
8A
100
AcDbEntity
  8
0
  6
Continuous
 62
     8
370
     0
100
AcDbSpline
210
0.0
220
0.0
230
1.0
 70
     8
 71
     3
 72
     8
 73
     4
 74
     0
 42
0.000000001
 43
0.00000001
 40
34.0
 40
34.0
 40
34.0
 40
34.0
 40
35.0
 40
35.0
 40
35.0
 40
35.0
 10
1.617341837371248
 20
0.3961420746749176
 30
0.0
 10
1.619660974865984
 20
0.3956873147115886
 30
0.0
 10
1.621980112360718
 20
0.3952325931699642
 30
0.0
 10
1.624299249855472
 20
0.3947778716284157
 30
0.0
  0
SPLINE
  5
92
330
8A
100
AcDbEntity
  8
0
  6
Continuous
 62
     8
370
     0
100
AcDbSpline
210
0.0
220
0.0
230
1.0
 70
     8
 71
     3
 72
     8
 73
     4
 74
     0
 42
0.000000001
 43
0.00000001
 40
33.0
 40
33.0
 40
33.0
 40
33.0
 40
34.0
 40
34.0
 40
34.0
 40
34.0
 10
1.487154618164736
 20
0.02098166469205
 30
0.0
 10
1.530882578060469
 20
0.1469925921635305
 30
0.0
 10
1.574112284559385
 20
0.2715673142083528
 30
0.0
 10
1.617341837371248
 20
0.3961420746749176
 30
0.0
  0
SPLINE
  5
93
330
8A
100
AcDbEntity
  8
0
  6
Continuous
 62
     8
370
     0
100
AcDbSpline
210
0.0
220
0.0
230
1.0
 70
    24
 71
     3
 72
     8
 73
     4
 74
     0
 42
0.000000001
 43
0.00000001
 40
32.0
 40
32.0
 40
32.0
 40
32.0
 40
33.0
 40
33.0
 40
33.0
 40
33.0
 10
1.358252530020567
 20
0.02098166469205
 30
0.0
 10
1.403594203878849
 20
0.02098166469205
 30
0.0
 10
1.445210042728163
 20
0.02098166469205
 30
0.0
 10
1.487154618164736
 20
0.02098166469205
 30
0.0
  0
SPLINE
  5
94
330
8A
100
AcDbEntity
  8
0
  6
Continuous
 62
     8
370
     0
100
AcDbSpline
210
0.0
220
0.0
230
1.0
 70
     8
 71
     3
 72
     8
 73
     4
 74
     0
 42
0.000000001
 43
0.00000001
 40
31.0
 40
31.0
 40
31.0
 40
31.0
 40
32.0
 40
32.0
 40
32.0
 40
32.0
 10
1.155931220879272
 20
0.6119791219529866
 30
0.0
 10
1.223562895171523
 20
0.4144211890550427
 30
0.0
 10
1.291194723150807
 20
0.2168631793135314
 30
0.0
 10
1.358252530020567
 20
0.02098166469205
 30
0.0
  0
SPLINE
  5
95
330
8A
100
AcDbEntity
  8
0
  6
Continuous
 62
     8
370
     0
100
AcDbSpline
210
0.0
220
0.0
230
1.0
 70
     8
 71
     3
 72
     8
 73
     4
 74
     0
 42
0.000000001
 43
0.00000001
 40
30.0
 40
30.0
 40
30.0
 40
30.0
 40
31.0
 40
31.0
 40
31.0
 40
31.0
 10
1.150680349332222
 20
0.6124822549134179
 30
0.0
 10
1.15243069107691
 20
0.6123145439266341
 30
0.0
 10
1.154180879134584
 20
0.6121468329397722
 30
0.0
 10
1.155931220879272
 20
0.6119791219529866
 30
0.0
  0
SPLINE
  5
96
330
8A
100
AcDbEntity
  8
0
  6
Continuous
 62
     8
370
     0
100
AcDbSpline
210
0.0
220
0.0
230
1.0
 70
     8
 71
     3
 72
     8
 73
     4
 74
     0
 42
0.000000001
 43
0.00000001
 40
29.0
 40
29.0
 40
29.0
 40
29.0
 40
30.0
 40
30.0
 40
30.0
 40
30.0
 10
0.9481694672220798
 20
0.0208614814236237
 30
0.0
 10
1.015951985348072
 20
0.2188830881334553
 30
0.0
 10
1.083316244183653
 20
0.4156826523125666
 30
0.0
 10
1.150680349332222
 20
0.6124822549134179
 30
0.0
  0
SPLINE
  5
97
330
8A
100
AcDbEntity
  8
0
  6
Continuous
 62
     8
370
     0
100
AcDbSpline
210
0.0
220
0.0
230
1.0
 70
    24
 71
     3
 72
     8
 73
     4
 74
     0
 42
0.000000001
 43
0.00000001
 40
28.0
 40
28.0
 40
28.0
 40
28.0
 40
29.0
 40
29.0
 40
29.0
 40
29.0
 10
0.8194283662565629
 20
0.0208614814236237
 30
0.0
 10
0.864205624445552
 20
0.0208614814236237
 30
0.0
 10
0.9058301466128856
 20
0.0208614814236237
 30
0.0
 10
0.9481694672220798
 20
0.0208614814236237
 30
0.0
  0
SPLINE
  5
98
330
8A
100
AcDbEntity
  8
0
  6
Continuous
 62
     8
370
     0
100
AcDbSpline
210
0.0
220
0.0
230
1.0
 70
     8
 71
     3
 72
     8
 73
     4
 74
     0
 42
0.000000001
 43
0.00000001
 40
27.0
 40
27.0
 40
27.0
 40
27.0
 40
28.0
 40
28.0
 40
28.0
 40
28.0
 10
0.6940132066113596
 20
0.3815594795001297
 30
0.0
 10
0.7359666190529646
 20
0.260900280698354
 30
0.0
 10
0.7779199546510239
 20
0.1402411203183612
 30
0.0
 10
0.8194283662565629
 20
0.0208614814236237
 30
0.0
  0
SPLINE
  5
99
330
8A
100
AcDbEntity
  8
0
  6
Continuous
 62
     8
370
     0
100
AcDbSpline
210
0.0
220
0.0
230
1.0
 70
     8
 71
     3
 72
     8
 73
     4
 74
     0
 42
0.000000001
 43
0.00000001
 40
26.0
 40
26.0
 40
26.0
 40
26.0
 40
27.0
 40
27.0
 40
27.0
 40
27.0
 10
0.690171798945296
 20
0.3810893508323517
 30
0.0
 10
0.6914522425528219
 20
0.3812460731955374
 30
0.0
 10
0.6927327630038549
 20
0.3814027571369421
 30
0.0
 10
0.6940132066113596
 20
0.3815594795001297
 30
0.0
  0
SPLINE
  5
9A
330
8A
100
AcDbEntity
  8
0
  6
Continuous
 62
     8
370
     0
100
AcDbSpline
210
0.0
220
0.0
230
1.0
 70
    24
 71
     3
 72
     8
 73
     4
 74
     0
 42
0.000000001
 43
0.00000001
 40
25.0
 40
25.0
 40
25.0
 40
25.0
 40
26.0
 40
26.0
 40
26.0
 40
26.0
 10
0.690171798945296
 20
0.0267215684133154
 30
0.0
 10
0.690171798945296
 20
0.1463832230338764
 30
0.0
 10
0.690171798945296
 20
0.2637362677222606
 30
0.0
 10
0.690171798945296
 20
0.3810893508323517
 30
0.0
  0
SPLINE
  5
9B
330
8A
100
AcDbEntity
  8
0
  6
Continuous
 62
     8
370
     0
100
AcDbSpline
210
0.0
220
0.0
230
1.0
 70
     8
 71
     3
 72
     8
 73
     4
 74
     0
 42
0.000000001
 43
0.00000001
 40
24.0
 40
24.0
 40
24.0
 40
24.0
 40
25.0
 40
25.0
 40
25.0
 40
25.0
 10
0.6665367295018015
 20
0.0248740964567577
 30
0.0
 10
0.673688940314331
 20
0.0248805513126075
 30
0.0
 10
0.6808401521610634
 20
0.0259625081027092
 30
0.0
 10
0.690171798945296
 20
0.0267215684133154
 30
0.0
  0
SPLINE
  5
9C
330
8A
100
AcDbEntity
  8
0
  6
Continuous
 62
     8
370
     0
100
AcDbSpline
210
0.0
220
0.0
230
1.0
 70
     8
 71
     3
 72
     8
 73
     4
 74
     0
 42
0.000000001
 43
0.00000001
 40
23.0
 40
23.0
 40
23.0
 40
23.0
 40
24.0
 40
24.0
 40
24.0
 40
24.0
 10
0.3493110713449961
 20
0.0249956629086091
 30
0.0
 10
0.4550504471755414
 20
0.0244442337945254
 30
0.0
 10
0.5607945873044473
 20
0.0247788873329534
 30
0.0
 10
0.6665367295018015
 20
0.0248740964567577
 30
0.0
  0
SPLINE
  5
9D
330
8A
100
AcDbEntity
  8
0
  6
Continuous
 62
     8
370
     0
100
AcDbSpline
210
0.0
220
0.0
230
1.0
 70
     8
 71
     3
 72
     8
 73
     4
 74
     0
 42
0.000000001
 43
0.00000001
 40
22.0
 40
22.0
 40
22.0
 40
22.0
 40
23.0
 40
23.0
 40
23.0
 40
23.0
 10
0.1884951769118723
 20
0.0601667124091723
 30
0.0
 10
0.2390193315826015
 20
0.0351846528680666
 30
0.0
 10
0.2933691794191386
 20
0.0252873609182086
 30
0.0
 10
0.3493110713449961
 20
0.0249956629086091
 30
0.0
  0
SPLINE
  5
9E
330
8A
100
AcDbEntity
  8
0
  6
Continuous
 62
     8
370
     0
100
AcDbSpline
210
0.0
220
0.0
230
1.0
 70
     8
 71
     3
 72
     8
 73
     4
 74
     0
 42
0.000000001
 43
0.00000001
 40
21.0
 40
21.0
 40
21.0
 40
21.0
 40
22.0
 40
22.0
 40
22.0
 40
22.0
 10
0.0397213155501118
 20
0.285635442003188
 30
0.0
 10
0.0464532307189517
 20
0.1826565160143632
 30
0.0
 10
0.0952553604828298
 20
0.1062695981966055
 30
0.0
 10
0.1884951769118723
 20
0.0601667124091723
 30
0.0
  0
SPLINE
  5
9F
330
8A
100
AcDbEntity
  8
0
  6
Continuous
 62
     8
370
     0
100
AcDbSpline
210
0.0
220
0.0
230
1.0
 70
     8
 71
     3
 72
    11
 73
     7
 74
     0
 42
0.000000001
 43
0.00000001
 40
19.0
 40
19.0
 40
19.0
 40
19.0
 40
20.0
 40
20.0
 40
20.0
 40
21.0
 40
21.0
 40
21.0
 40
21.0
 10
0.3734456236816819
 20
0.5938796293056314
 30
0.0
 10
0.3392457226124493
 20
0.5927894118368822
 30
0.0
 10
0.3044681119446659
 20
0.5904522161144544
 30
0.0
 10
0.2711936758329829
 20
0.5830685141918284
 30
0.0
 10
0.130182662331542
 20
0.5517777167577067
 30
0.0
 10
0.0288964838676611
 20
0.451223703371688
 30
0.0
 10
0.0397213155501118
 20
0.285635442003188
 30
0.0
  0
SPLINE
  5
A0
330
8A
100
AcDbEntity
  8
0
  6
Continuous
 62
     8
370
     0
100
AcDbSpline
210
0.0
220
0.0
230
1.0
 70
     8
 71
     3
 72
     8
 73
     4
 74
     0
 42
0.000000001
 43
0.00000001
 40
18.0
 40
18.0
 40
18.0
 40
18.0
 40
19.0
 40
19.0
 40
19.0
 40
19.0
 10
0.5404106135908139
 20
0.5943418430906087
 30
0.0
 10
0.4822031825268198
 20
0.5943418430906087
 30
0.0
 10
0.4277765295900185
 20
0.595611528605035
 30
0.0
 10
0.3734456236816819
 20
0.5938796293056314
 30
0.0
  0
SPLINE
  5
A1
330
8A
100
AcDbEntity
  8
0
  6
Continuous
 62
     8
370
     0
100
AcDbSpline
210
0.0
220
0.0
230
1.0
 70
    24
 71
     3
 72
    11
 73
     7
 74
     0
 42
0.000000001
 43
0.00000001
 40
16.0
 40
16.0
 40
16.0
 40
16.0
 40
17.0
 40
17.0
 40
17.0
 40
18.0
 40
18.0
 40
18.0
 40
18.0
 10
0.5404106135908139
 20
0.8636909324954444
 30
0.0
 10
0.5404106135908139
 20
0.817356728495797
 30
0.0
 10
0.5404106135908139
 20
0.7730567262112387
 30
0.0
 10
0.5404106135908139
 20
0.7287567239266802
 30
0.0
 10
0.5404106135908139
 20
0.6846439124617284
 30
0.0
 10
0.5404106135908139
 20
0.6405311009968171
 30
0.0
 10
0.5404106135908139
 20
0.5943418430906087
 30
0.0
  0
SPLINE
  5
A2
330
8A
100
AcDbEntity
  8
0
  6
Continuous
 62
     8
370
     0
100
AcDbSpline
210
0.0
220
0.0
230
1.0
 70
    24
 71
     3
 72
     8
 73
     4
 74
     0
 42
0.000000001
 43
0.00000001
 40
15.0
 40
15.0
 40
15.0
 40
15.0
 40
16.0
 40
16.0
 40
16.0
 40
16.0
 10
0.6877511511579565
 20
0.8636909324954444
 30
0.0
 10
0.637656013870717
 20
0.8636909324954444
 30
0.0
 10
0.5894939522235331
 20
0.8636909324954444
 30
0.0
 10
0.5404106135908139
 20
0.8636909324954444
 30
0.0
  0
SPLINE
  5
A3
330
8A
100
AcDbEntity
  8
0
  6
Continuous
 62
     8
370
     0
100
AcDbSpline
210
0.0
220
0.0
230
1.0
 70
     8
 71
     3
 72
     8
 73
     4
 74
     0
 42
0.000000001
 43
0.00000001
 40
14.0
 40
14.0
 40
14.0
 40
14.0
 40
15.0
 40
15.0
 40
15.0
 40
15.0
 10
0.8851058329401726
 20
0.2508072682978802
 30
0.0
 10
0.8192265751677246
 20
0.4553947313254969
 30
0.0
 10
0.7533473942387846
 20
0.6599822519857083
 30
0.0
 10
0.6877511511579565
 20
0.8636909324954444
 30
0.0
  0
SPLINE
  5
A4
330
8A
100
AcDbEntity
  8
0
  6
Continuous
 62
     8
370
     0
100
AcDbSpline
210
0.0
220
0.0
230
1.0
 70
     8
 71
     3
 72
     8
 73
     4
 74
     0
 42
0.000000001
 43
0.00000001
 40
13.0
 40
13.0
 40
13.0
 40
13.0
 40
14.0
 40
14.0
 40
14.0
 40
14.0
 10
0.8895201859064792
 20
0.2506737911001599
 30
0.0
 10
0.8880487093031957
 20
0.2507182834993876
 30
0.0
 10
0.8865772326999297
 20
0.2507627758986534
 30
0.0
 10
0.8851058329401726
 20
0.2508072682978802
 30
0.0
  0
SPLINE
  5
A5
330
8A
100
AcDbEntity
  8
0
  6
Continuous
 62
     8
370
     0
100
AcDbSpline
210
0.0
220
0.0
230
1.0
 70
     8
 71
     3
 72
     8
 73
     4
 74
     0
 42
0.000000001
 43
0.00000001
 40
12.0
 40
12.0
 40
12.0
 40
12.0
 40
13.0
 40
13.0
 40
13.0
 40
13.0
 10
1.092528091917066
 20
0.8650559423989477
 30
0.0
 10
1.024666348119865
 20
0.6596796037742149
 30
0.0
 10
0.9570933054349351
 20
0.4551767262535064
 30
0.0
 10
0.8895201859064792
 20
0.2506737911001599
 30
0.0
  0
SPLINE
  5
A6
330
8A
100
AcDbEntity
  8
0
  6
Continuous
 62
     8
370
     0
100
AcDbSpline
210
0.0
220
0.0
230
1.0
 70
    24
 71
     3
 72
     8
 73
     4
 74
     0
 42
0.000000001
 43
0.00000001
 40
11.0
 40
11.0
 40
11.0
 40
11.0
 40
12.0
 40
12.0
 40
12.0
 40
12.0
 10
1.218661200588547
 20
0.8650559423989477
 30
0.0
 10
1.175041743745911
 20
0.8650559423989477
 30
0.0
 10
1.134162373211665
 20
0.8650559423989477
 30
0.0
 10
1.092528091917066
 20
0.8650559423989477
 30
0.0
  0
SPLINE
  5
A7
330
8A
100
AcDbEntity
  8
0
  6
Continuous
 62
     8
370
     0
100
AcDbSpline
210
0.0
220
0.0
230
1.0
 70
     8
 71
     3
 72
     8
 73
     4
 74
     0
 42
0.000000001
 43
0.00000001
 40
10.0
 40
10.0
 40
10.0
 40
10.0
 40
11.0
 40
11.0
 40
11.0
 40
11.0
 10
1.421478457821005
 20
0.2512611061389791
 30
0.0
 10
1.353791763566985
 20
0.4561043044078963
 30
0.0
 10
1.286105069312947
 20
0.6609474834658856
 30
0.0
 10
1.218661200588547
 20
0.8650559423989477
 30
0.0
  0
SPLINE
  5
A8
330
8A
100
AcDbEntity
  8
0
  6
Continuous
 62
     8
370
     0
100
AcDbSpline
210
0.0
220
0.0
230
1.0
 70
     8
 71
     3
 72
     8
 73
     4
 74
     0
 42
0.000000001
 43
0.00000001
 40
9.0
 40
9.0
 40
9.0
 40
9.0
 40
10.0
 40
10.0
 40
10.0
 40
10.0
 10
1.426048649449934
 20
0.2506702562981322
 30
0.0
 10
1.424525303469321
 20
0.2508672062450424
 30
0.0
 10
1.423001803801637
 20
0.2510641561920307
 30
0.0
 10
1.421478457821005
 20
0.2512611061389791
 30
0.0
  0
SPLINE
  5
A9
330
8A
100
AcDbEntity
  8
0
  6
Continuous
 62
     8
370
     0
100
AcDbSpline
210
0.0
220
0.0
230
1.0
 70
     8
 71
     3
 72
     8
 73
     4
 74
     0
 42
0.000000001
 43
0.00000001
 40
8.0
 40
8.0
 40
8.0
 40
8.0
 40
9.0
 40
9.0
 40
9.0
 40
9.0
 10
1.62417491703683
 20
0.8659516497025636
 30
0.0
 10
1.557698200880634
 20
0.6595079353460304
 30
0.0
 10
1.491873425165274
 20
0.4550891246383989
 30
0.0
 10
1.426048649449934
 20
0.2506702562981322
 30
0.0
  0
SPLINE
  5
AA
330
8A
100
AcDbEntity
  8
0
  6
Continuous
 62
     8
370
     0
100
AcDbSpline
210
0.0
220
0.0
230
1.0
 70
     8
 71
     3
 72
     8
 73
     4
 74
     0
 42
0.000000001
 43
0.00000001
 40
7.0
 40
7.0
 40
7.0
 40
7.0
 40
8.0
 40
8.0
 40
8.0
 40
8.0
 10
1.649295986509273
 20
0.8659472696217902
 30
0.0
 10
1.641065123178055
 20
0.8659804083906446
 30
0.0
 10
1.632834106159786
 20
0.8659516497025636
 30
0.0
 10
1.62417491703683
 20
0.8659516497025636
 30
0.0
  0
SPLINE
  5
AB
330
8A
100
AcDbEntity
  8
0
  6
Continuous
 62
     8
370
     0
100
AcDbSpline
210
0.0
220
0.0
230
1.0
 70
     8
 71
     3
 72
     8
 73
     4
 74
     0
 42
0.000000001
 43
0.00000001
 40
6.0
 40
6.0
 40
6.0
 40
6.0
 40
7.0
 40
7.0
 40
7.0
 40
7.0
 10
1.946341536816341
 20
0.8646261853965559
 30
0.0
 10
1.847328658686307
 20
0.8653779455725679
 30
0.0
 10
1.748311477319045
 20
0.8655485381914314
 30
0.0
 10
1.649295986509273
 20
0.8659472696217902
 30
0.0
  0
SPLINE
  5
AC
330
8A
100
AcDbEntity
  8
0
  6
Continuous
 62
     8
370
     0
100
AcDbSpline
210
0.0
220
0.0
230
1.0
 70
     8
 71
     3
 72
     8
 73
     4
 74
     0
 42
0.000000001
 43
0.00000001
 40
5.0
 40
5.0
 40
5.0
 40
5.0
 40
6.0
 40
6.0
 40
6.0
 40
6.0
 10
2.075548693742947
 20
0.8474146580679591
 30
0.0
 10
2.033357296913632
 20
0.8602345877182456
 30
0.0
 10
1.990056894374456
 20
0.8642942790140489
 30
0.0
 10
1.946341536816341
 20
0.8646261853965559
 30
0.0
  0
SPLINE
  5
AD
330
8A
100
AcDbEntity
  8
0
  6
Continuous
 62
     8
370
     0
100
AcDbSpline
210
0.0
220
0.0
230
1.0
 70
     8
 71
     3
 72
     8
 73
     4
 74
     0
 42
0.000000001
 43
0.00000001
 40
4.0
 40
4.0
 40
4.0
 40
4.0
 40
5.0
 40
5.0
 40
5.0
 40
5.0
 10
2.272852428270046
 20
0.571897195068549
 30
0.0
 10
2.277550026458512
 20
0.7064368889952508
 30
0.0
 10
2.204501498611656
 20
0.8082320021054833
 30
0.0
 10
2.075548693742947
 20
0.8474146580679591
 30
0.0
  0
SPLINE
  5
AE
330
8A
100
AcDbEntity
  8
0
  6
Continuous
 62
     8
370
     0
100
AcDbSpline
210
0.0
220
0.0
230
1.0
 70
     8
 71
     3
 72
     8
 73
     4
 74
     0
 42
0.000000001
 43
0.00000001
 40
3.0
 40
3.0
 40
3.0
 40
3.0
 40
4.0
 40
4.0
 40
4.0
 40
4.0
 10
2.046848406701573
 20
0.3076007017130627
 30
0.0
 10
2.186100087766244
 20
0.3388160388086005
 30
0.0
 10
2.268118252565098
 20
0.4363269334570884
 30
0.0
 10
2.272852428270046
 20
0.571897195068549
 30
0.0
  0
SPLINE
  5
AF
330
8A
100
AcDbEntity
  8
0
  6
Continuous
 62
     8
370
     0
100
AcDbSpline
210
0.0
220
0.0
230
1.0
 70
     8
 71
     3
 72
     8
 73
     4
 74
     0
 42
0.000000001
 43
0.00000001
 40
2.0
 40
2.0
 40
2.0
 40
2.0
 40
3.0
 40
3.0
 40
3.0
 40
3.0
 10
1.929668644155394
 20
0.2949715457116981
 30
0.0
 10
1.968879588139407
 20
0.2968527519744235
 30
0.0
 10
2.0087320218453
 20
0.2990563936555297
 30
0.0
 10
2.046848406701573
 20
0.3076007017130627
 30
0.0
  0
SPLINE
  5
B0
330
8A
100
AcDbEntity
  8
0
  6
Continuous
 62
     8
370
     0
100
AcDbSpline
210
0.0
220
0.0
230
1.0
 70
     8
 71
     3
 72
     8
 73
     4
 74
     0
 42
0.000000001
 43
0.00000001
 40
1.0
 40
1.0
 40
1.0
 40
1.0
 40
2.0
 40
2.0
 40
2.0
 40
2.0
 10
1.798772466614648
 20
0.2944888915498468
 30
0.0
 10
1.842412210147108
 20
0.294490505263809
 30
0.0
 10
1.886128950888609
 20
0.2928825545654005
 30
0.0
 10
1.929668644155394
 20
0.2949715457116981
 30
0.0
  0
SPLINE
  5
B1
330
8A
100
AcDbEntity
  8
0
  6
Continuous
 62
     8
370
     0
100
AcDbSpline
210
0.0
220
0.0
230
1.0
 70
     8
 71
     3
 72
     8
 73
     4
 74
     0
 42
0.000000001
 43
0.00000001
 40
0.0
 40
0.0
 40
0.0
 40
0.0
 40
1.0
 40
1.0
 40
1.0
 40
1.0
 10
1.771964220772605
 20
0.2944888147063214
 30
0.0
 10
1.782407870164083
 20
0.2944888147063214
 30
0.0
 10
1.790590168389365
 20
0.2944885841757452
 30
0.0
 10
1.798772466614648
 20
0.2944888915498468
 30
0.0
  0
SPLINE
  5
B2
330
8A
100
AcDbEntity
  8
0
  6
Continuous
 62
     8
370
     0
100
AcDbSpline
210
0.0
220
0.0
230
1.0
 70
     8
 71
     3
 72
     8
 73
     4
 74
     0
 42
0.000000001
 43
0.00000001
 40
37.0
 40
37.0
 40
37.0
 40
37.0
 40
38.0
 40
38.0
 40
38.0
 40
38.0
 10
1.798772466614648
 20
0.2944888915498468
 30
0.0
 10
1.790590168389365
 20
0.2944885841757452
 30
0.0
 10
1.782407870164083
 20
0.2944888147063214
 30
0.0
 10
1.771964220772605
 20
0.2944888147063214
 30
0.0
  0
SPLINE
  5
B3
330
8A
100
AcDbEntity
  8
0
  6
Continuous
 62
     8
370
     0
100
AcDbSpline
210
0.0
220
0.0
230
1.0
 70
     8
 71
     3
 72
     8
 73
     4
 74
     0
 42
0.000000001
 43
0.00000001
 40
36.0
 40
36.0
 40
36.0
 40
36.0
 40
37.0
 40
37.0
 40
37.0
 40
37.0
 10
1.929668644155394
 20
0.2949715457116981
 30
0.0
 10
1.886128950888609
 20
0.2928825545654005
 30
0.0
 10
1.842412210147108
 20
0.294490505263809
 30
0.0
 10
1.798772466614648
 20
0.2944888915498468
 30
0.0
  0
SPLINE
  5
B4
330
8A
100
AcDbEntity
  8
0
  6
Continuous
 62
     8
370
     0
100
AcDbSpline
210
0.0
220
0.0
230
1.0
 70
     8
 71
     3
 72
     8
 73
     4
 74
     0
 42
0.000000001
 43
0.00000001
 40
35.0
 40
35.0
 40
35.0
 40
35.0
 40
36.0
 40
36.0
 40
36.0
 40
36.0
 10
2.046848406701573
 20
0.3076007017130627
 30
0.0
 10
2.0087320218453
 20
0.2990563936555297
 30
0.0
 10
1.968879588139407
 20
0.2968527519744235
 30
0.0
 10
1.929668644155394
 20
0.2949715457116981
 30
0.0
  0
SPLINE
  5
B5
330
8A
100
AcDbEntity
  8
0
  6
Continuous
 62
     8
370
     0
100
AcDbSpline
210
0.0
220
0.0
230
1.0
 70
     8
 71
     3
 72
     8
 73
     4
 74
     0
 42
0.000000001
 43
0.00000001
 40
34.0
 40
34.0
 40
34.0
 40
34.0
 40
35.0
 40
35.0
 40
35.0
 40
35.0
 10
2.272852428270046
 20
0.571897195068549
 30
0.0
 10
2.268118252565098
 20
0.4363269334570884
 30
0.0
 10
2.186100087766244
 20
0.3388160388086005
 30
0.0
 10
2.046848406701573
 20
0.3076007017130627
 30
0.0
  0
SPLINE
  5
B6
330
8A
100
AcDbEntity
  8
0
  6
Continuous
 62
     8
370
     0
100
AcDbSpline
210
0.0
220
0.0
230
1.0
 70
     8
 71
     3
 72
     8
 73
     4
 74
     0
 42
0.000000001
 43
0.00000001
 40
33.0
 40
33.0
 40
33.0
 40
33.0
 40
34.0
 40
34.0
 40
34.0
 40
34.0
 10
2.075548693742947
 20
0.8474146580679591
 30
0.0
 10
2.204501498611656
 20
0.8082320021054833
 30
0.0
 10
2.277550026458512
 20
0.7064368889952508
 30
0.0
 10
2.272852428270046
 20
0.571897195068549
 30
0.0
  0
SPLINE
  5
B7
330
8A
100
AcDbEntity
  8
0
  6
Continuous
 62
     8
370
     0
100
AcDbSpline
210
0.0
220
0.0
230
1.0
 70
     8
 71
     3
 72
     8
 73
     4
 74
     0
 42
0.000000001
 43
0.00000001
 40
32.0
 40
32.0
 40
32.0
 40
32.0
 40
33.0
 40
33.0
 40
33.0
 40
33.0
 10
1.946341536816341
 20
0.8646261853965559
 30
0.0
 10
1.990056894374456
 20
0.8642942790140489
 30
0.0
 10
2.033357296913632
 20
0.8602345877182456
 30
0.0
 10
2.075548693742947
 20
0.8474146580679591
 30
0.0
  0
SPLINE
  5
B8
330
8A
100
AcDbEntity
  8
0
  6
Continuous
 62
     8
370
     0
100
AcDbSpline
210
0.0
220
0.0
230
1.0
 70
     8
 71
     3
 72
     8
 73
     4
 74
     0
 42
0.000000001
 43
0.00000001
 40
31.0
 40
31.0
 40
31.0
 40
31.0
 40
32.0
 40
32.0
 40
32.0
 40
32.0
 10
1.649295986509273
 20
0.8659472696217902
 30
0.0
 10
1.748311477319045
 20
0.8655485381914314
 30
0.0
 10
1.847328658686307
 20
0.8653779455725679
 30
0.0
 10
1.946341536816341
 20
0.8646261853965559
 30
0.0
  0
SPLINE
  5
B9
330
8A
100
AcDbEntity
  8
0
  6
Continuous
 62
     8
370
     0
100
AcDbSpline
210
0.0
220
0.0
230
1.0
 70
     8
 71
     3
 72
     8
 73
     4
 74
     0
 42
0.000000001
 43
0.00000001
 40
30.0
 40
30.0
 40
30.0
 40
30.0
 40
31.0
 40
31.0
 40
31.0
 40
31.0
 10
1.62417491703683
 20
0.8659516497025636
 30
0.0
 10
1.632834106159786
 20
0.8659516497025636
 30
0.0
 10
1.641065123178055
 20
0.8659804083906446
 30
0.0
 10
1.649295986509273
 20
0.8659472696217902
 30
0.0
  0
SPLINE
  5
BA
330
8A
100
AcDbEntity
  8
0
  6
Continuous
 62
     8
370
     0
100
AcDbSpline
210
0.0
220
0.0
230
1.0
 70
     8
 71
     3
 72
     8
 73
     4
 74
     0
 42
0.000000001
 43
0.00000001
 40
29.0
 40
29.0
 40
29.0
 40
29.0
 40
30.0
 40
30.0
 40
30.0
 40
30.0
 10
1.426048649449934
 20
0.2506702562981322
 30
0.0
 10
1.491873425165274
 20
0.4550891246383989
 30
0.0
 10
1.557698200880634
 20
0.6595079353460304
 30
0.0
 10
1.62417491703683
 20
0.8659516497025636
 30
0.0
  0
SPLINE
  5
BB
330
8A
100
AcDbEntity
  8
0
  6
Continuous
 62
     8
370
     0
100
AcDbSpline
210
0.0
220
0.0
230
1.0
 70
     8
 71
     3
 72
     8
 73
     4
 74
     0
 42
0.000000001
 43
0.00000001
 40
28.0
 40
28.0
 40
28.0
 40
28.0
 40
29.0
 40
29.0
 40
29.0
 40
29.0
 10
1.421478457821005
 20
0.2512611061389791
 30
0.0
 10
1.423001803801637
 20
0.2510641561920307
 30
0.0
 10
1.424525303469321
 20
0.2508672062450424
 30
0.0
 10
1.426048649449934
 20
0.2506702562981322
 30
0.0
  0
SPLINE
  5
BC
330
8A
100
AcDbEntity
  8
0
  6
Continuous
 62
     8
370
     0
100
AcDbSpline
210
0.0
220
0.0
230
1.0
 70
     8
 71
     3
 72
     8
 73
     4
 74
     0
 42
0.000000001
 43
0.00000001
 40
27.0
 40
27.0
 40
27.0
 40
27.0
 40
28.0
 40
28.0
 40
28.0
 40
28.0
 10
1.218661200588547
 20
0.8650559423989477
 30
0.0
 10
1.286105069312947
 20
0.6609474834658856
 30
0.0
 10
1.353791763566985
 20
0.4561043044078963
 30
0.0
 10
1.421478457821005
 20
0.2512611061389791
 30
0.0
  0
SPLINE
  5
BD
330
8A
100
AcDbEntity
  8
0
  6
Continuous
 62
     8
370
     0
100
AcDbSpline
210
0.0
220
0.0
230
1.0
 70
    24
 71
     3
 72
     8
 73
     4
 74
     0
 42
0.000000001
 43
0.00000001
 40
26.0
 40
26.0
 40
26.0
 40
26.0
 40
27.0
 40
27.0
 40
27.0
 40
27.0
 10
1.092528091917066
 20
0.8650559423989477
 30
0.0
 10
1.134162373211665
 20
0.8650559423989477
 30
0.0
 10
1.175041743745911
 20
0.8650559423989477
 30
0.0
 10
1.218661200588547
 20
0.8650559423989477
 30
0.0
  0
SPLINE
  5
BE
330
8A
100
AcDbEntity
  8
0
  6
Continuous
 62
     8
370
     0
100
AcDbSpline
210
0.0
220
0.0
230
1.0
 70
     8
 71
     3
 72
     8
 73
     4
 74
     0
 42
0.000000001
 43
0.00000001
 40
25.0
 40
25.0
 40
25.0
 40
25.0
 40
26.0
 40
26.0
 40
26.0
 40
26.0
 10
0.8895201859064792
 20
0.2506737911001599
 30
0.0
 10
0.9570933054349351
 20
0.4551767262535064
 30
0.0
 10
1.024666348119865
 20
0.6596796037742149
 30
0.0
 10
1.092528091917066
 20
0.8650559423989477
 30
0.0
  0
SPLINE
  5
BF
330
8A
100
AcDbEntity
  8
0
  6
Continuous
 62
     8
370
     0
100
AcDbSpline
210
0.0
220
0.0
230
1.0
 70
     8
 71
     3
 72
     8
 73
     4
 74
     0
 42
0.000000001
 43
0.00000001
 40
24.0
 40
24.0
 40
24.0
 40
24.0
 40
25.0
 40
25.0
 40
25.0
 40
25.0
 10
0.8851058329401726
 20
0.2508072682978802
 30
0.0
 10
0.8865772326999297
 20
0.2507627758986534
 30
0.0
 10
0.8880487093031957
 20
0.2507182834993876
 30
0.0
 10
0.8895201859064792
 20
0.2506737911001599
 30
0.0
  0
SPLINE
  5
C0
330
8A
100
AcDbEntity
  8
0
  6
Continuous
 62
     8
370
     0
100
AcDbSpline
210
0.0
220
0.0
230
1.0
 70
     8
 71
     3
 72
     8
 73
     4
 74
     0
 42
0.000000001
 43
0.00000001
 40
23.0
 40
23.0
 40
23.0
 40
23.0
 40
24.0
 40
24.0
 40
24.0
 40
24.0
 10
0.6877511511579565
 20
0.8636909324954444
 30
0.0
 10
0.7533473942387846
 20
0.6599822519857083
 30
0.0
 10
0.8192265751677246
 20
0.4553947313254969
 30
0.0
 10
0.8851058329401726
 20
0.2508072682978802
 30
0.0
  0
SPLINE
  5
C1
330
8A
100
AcDbEntity
  8
0
  6
Continuous
 62
     8
370
     0
100
AcDbSpline
210
0.0
220
0.0
230
1.0
 70
    24
 71
     3
 72
     8
 73
     4
 74
     0
 42
0.000000001
 43
0.00000001
 40
22.0
 40
22.0
 40
22.0
 40
22.0
 40
23.0
 40
23.0
 40
23.0
 40
23.0
 10
0.5404106135908139
 20
0.8636909324954444
 30
0.0
 10
0.5894939522235331
 20
0.8636909324954444
 30
0.0
 10
0.637656013870717
 20
0.8636909324954444
 30
0.0
 10
0.6877511511579565
 20
0.8636909324954444
 30
0.0
  0
SPLINE
  5
C2
330
8A
100
AcDbEntity
  8
0
  6
Continuous
 62
     8
370
     0
100
AcDbSpline
210
0.0
220
0.0
230
1.0
 70
    24
 71
     3
 72
    11
 73
     7
 74
     0
 42
0.000000001
 43
0.00000001
 40
20.0
 40
20.0
 40
20.0
 40
20.0
 40
21.0
 40
21.0
 40
21.0
 40
22.0
 40
22.0
 40
22.0
 40
22.0
 10
0.5404106135908139
 20
0.5943418430906087
 30
0.0
 10
0.5404106135908139
 20
0.6405311009968171
 30
0.0
 10
0.5404106135908139
 20
0.6846439124617284
 30
0.0
 10
0.5404106135908139
 20
0.7287567239266802
 30
0.0
 10
0.5404106135908139
 20
0.7730567262112387
 30
0.0
 10
0.5404106135908139
 20
0.817356728495797
 30
0.0
 10
0.5404106135908139
 20
0.8636909324954444
 30
0.0
  0
SPLINE
  5
C3
330
8A
100
AcDbEntity
  8
0
  6
Continuous
 62
     8
370
     0
100
AcDbSpline
210
0.0
220
0.0
230
1.0
 70
     8
 71
     3
 72
     8
 73
     4
 74
     0
 42
0.000000001
 43
0.00000001
 40
19.0
 40
19.0
 40
19.0
 40
19.0
 40
20.0
 40
20.0
 40
20.0
 40
20.0
 10
0.3734456236816819
 20
0.5938796293056314
 30
0.0
 10
0.4277765295900185
 20
0.595611528605035
 30
0.0
 10
0.4822031825268198
 20
0.5943418430906087
 30
0.0
 10
0.5404106135908139
 20
0.5943418430906087
 30
0.0
  0
SPLINE
  5
C4
330
8A
100
AcDbEntity
  8
0
  6
Continuous
 62
     8
370
     0
100
AcDbSpline
210
0.0
220
0.0
230
1.0
 70
     8
 71
     3
 72
    11
 73
     7
 74
     0
 42
0.000000001
 43
0.00000001
 40
17.0
 40
17.0
 40
17.0
 40
17.0
 40
18.0
 40
18.0
 40
18.0
 40
19.0
 40
19.0
 40
19.0
 40
19.0
 10
0.0397213155501118
 20
0.285635442003188
 30
0.0
 10
0.0288964838676611
 20
0.451223703371688
 30
0.0
 10
0.130182662331542
 20
0.5517777167577067
 30
0.0
 10
0.2711936758329829
 20
0.5830685141918284
 30
0.0
 10
0.3044681119446659
 20
0.5904522161144544
 30
0.0
 10
0.3392457226124493
 20
0.5927894118368822
 30
0.0
 10
0.3734456236816819
 20
0.5938796293056314
 30
0.0
  0
SPLINE
  5
C5
330
8A
100
AcDbEntity
  8
0
  6
Continuous
 62
     8
370
     0
100
AcDbSpline
210
0.0
220
0.0
230
1.0
 70
     8
 71
     3
 72
     8
 73
     4
 74
     0
 42
0.000000001
 43
0.00000001
 40
16.0
 40
16.0
 40
16.0
 40
16.0
 40
17.0
 40
17.0
 40
17.0
 40
17.0
 10
0.1884951769118723
 20
0.0601667124091723
 30
0.0
 10
0.0952553604828298
 20
0.1062695981966055
 30
0.0
 10
0.0464532307189517
 20
0.1826565160143632
 30
0.0
 10
0.0397213155501118
 20
0.285635442003188
 30
0.0
  0
SPLINE
  5
C6
330
8A
100
AcDbEntity
  8
0
  6
Continuous
 62
     8
370
     0
100
AcDbSpline
210
0.0
220
0.0
230
1.0
 70
     8
 71
     3
 72
     8
 73
     4
 74
     0
 42
0.000000001
 43
0.00000001
 40
15.0
 40
15.0
 40
15.0
 40
15.0
 40
16.0
 40
16.0
 40
16.0
 40
16.0
 10
0.3493110713449961
 20
0.0249956629086091
 30
0.0
 10
0.2933691794191386
 20
0.0252873609182086
 30
0.0
 10
0.2390193315826015
 20
0.0351846528680666
 30
0.0
 10
0.1884951769118723
 20
0.0601667124091723
 30
0.0
  0
SPLINE
  5
C7
330
8A
100
AcDbEntity
  8
0
  6
Continuous
 62
     8
370
     0
100
AcDbSpline
210
0.0
220
0.0
230
1.0
 70
     8
 71
     3
 72
     8
 73
     4
 74
     0
 42
0.000000001
 43
0.00000001
 40
14.0
 40
14.0
 40
14.0
 40
14.0
 40
15.0
 40
15.0
 40
15.0
 40
15.0
 10
0.6665367295018015
 20
0.0248740964567577
 30
0.0
 10
0.5607945873044473
 20
0.0247788873329534
 30
0.0
 10
0.4550504471755414
 20
0.0244442337945254
 30
0.0
 10
0.3493110713449961
 20
0.0249956629086091
 30
0.0
  0
SPLINE
  5
C8
330
8A
100
AcDbEntity
  8
0
  6
Continuous
 62
     8
370
     0
100
AcDbSpline
210
0.0
220
0.0
230
1.0
 70
     8
 71
     3
 72
     8
 73
     4
 74
     0
 42
0.000000001
 43
0.00000001
 40
13.0
 40
13.0
 40
13.0
 40
13.0
 40
14.0
 40
14.0
 40
14.0
 40
14.0
 10
0.690171798945296
 20
0.0267215684133154
 30
0.0
 10
0.6808401521610634
 20
0.0259625081027092
 30
0.0
 10
0.673688940314331
 20
0.0248805513126075
 30
0.0
 10
0.6665367295018015
 20
0.0248740964567577
 30
0.0
  0
SPLINE
  5
C9
330
8A
100
AcDbEntity
  8
0
  6
Continuous
 62
     8
370
     0
100
AcDbSpline
210
0.0
220
0.0
230
1.0
 70
    24
 71
     3
 72
     8
 73
     4
 74
     0
 42
0.000000001
 43
0.00000001
 40
12.0
 40
12.0
 40
12.0
 40
12.0
 40
13.0
 40
13.0
 40
13.0
 40
13.0
 10
0.690171798945296
 20
0.3810893508323517
 30
0.0
 10
0.690171798945296
 20
0.2637362677222606
 30
0.0
 10
0.690171798945296
 20
0.1463832230338764
 30
0.0
 10
0.690171798945296
 20
0.0267215684133154
 30
0.0
  0
SPLINE
  5
CA
330
8A
100
AcDbEntity
  8
0
  6
Continuous
 62
     8
370
     0
100
AcDbSpline
210
0.0
220
0.0
230
1.0
 70
     8
 71
     3
 72
     8
 73
     4
 74
     0
 42
0.000000001
 43
0.00000001
 40
11.0
 40
11.0
 40
11.0
 40
11.0
 40
12.0
 40
12.0
 40
12.0
 40
12.0
 10
0.6940132066113596
 20
0.3815594795001297
 30
0.0
 10
0.6927327630038549
 20
0.3814027571369421
 30
0.0
 10
0.6914522425528219
 20
0.3812460731955374
 30
0.0
 10
0.690171798945296
 20
0.3810893508323517
 30
0.0
  0
SPLINE
  5
CB
330
8A
100
AcDbEntity
  8
0
  6
Continuous
 62
     8
370
     0
100
AcDbSpline
210
0.0
220
0.0
230
1.0
 70
     8
 71
     3
 72
     8
 73
     4
 74
     0
 42
0.000000001
 43
0.00000001
 40
10.0
 40
10.0
 40
10.0
 40
10.0
 40
11.0
 40
11.0
 40
11.0
 40
11.0
 10
0.8194283662565629
 20
0.0208614814236237
 30
0.0
 10
0.7779199546510239
 20
0.1402411203183612
 30
0.0
 10
0.7359666190529646
 20
0.260900280698354
 30
0.0
 10
0.6940132066113596
 20
0.3815594795001297
 30
0.0
  0
SPLINE
  5
CC
330
8A
100
AcDbEntity
  8
0
  6
Continuous
 62
     8
370
     0
100
AcDbSpline
210
0.0
220
0.0
230
1.0
 70
    24
 71
     3
 72
     8
 73
     4
 74
     0
 42
0.000000001
 43
0.00000001
 40
9.0
 40
9.0
 40
9.0
 40
9.0
 40
10.0
 40
10.0
 40
10.0
 40
10.0
 10
0.9481694672220798
 20
0.0208614814236237
 30
0.0
 10
0.9058301466128856
 20
0.0208614814236237
 30
0.0
 10
0.864205624445552
 20
0.0208614814236237
 30
0.0
 10
0.8194283662565629
 20
0.0208614814236237
 30
0.0
  0
SPLINE
  5
CD
330
8A
100
AcDbEntity
  8
0
  6
Continuous
 62
     8
370
     0
100
AcDbSpline
210
0.0
220
0.0
230
1.0
 70
     8
 71
     3
 72
     8
 73
     4
 74
     0
 42
0.000000001
 43
0.00000001
 40
8.0
 40
8.0
 40
8.0
 40
8.0
 40
9.0
 40
9.0
 40
9.0
 40
9.0
 10
1.150680349332222
 20
0.6124822549134179
 30
0.0
 10
1.083316244183653
 20
0.4156826523125666
 30
0.0
 10
1.015951985348072
 20
0.2188830881334553
 30
0.0
 10
0.9481694672220798
 20
0.0208614814236237
 30
0.0
  0
SPLINE
  5
CE
330
8A
100
AcDbEntity
  8
0
  6
Continuous
 62
     8
370
     0
100
AcDbSpline
210
0.0
220
0.0
230
1.0
 70
     8
 71
     3
 72
     8
 73
     4
 74
     0
 42
0.000000001
 43
0.00000001
 40
7.0
 40
7.0
 40
7.0
 40
7.0
 40
8.0
 40
8.0
 40
8.0
 40
8.0
 10
1.155931220879272
 20
0.6119791219529866
 30
0.0
 10
1.154180879134584
 20
0.6121468329397722
 30
0.0
 10
1.15243069107691
 20
0.6123145439266341
 30
0.0
 10
1.150680349332222
 20
0.6124822549134179
 30
0.0
  0
SPLINE
  5
CF
330
8A
100
AcDbEntity
  8
0
  6
Continuous
 62
     8
370
     0
100
AcDbSpline
210
0.0
220
0.0
230
1.0
 70
     8
 71
     3
 72
     8
 73
     4
 74
     0
 42
0.000000001
 43
0.00000001
 40
6.0
 40
6.0
 40
6.0
 40
6.0
 40
7.0
 40
7.0
 40
7.0
 40
7.0
 10
1.358252530020567
 20
0.02098166469205
 30
0.0
 10
1.291194723150807
 20
0.2168631793135314
 30
0.0
 10
1.223562895171523
 20
0.4144211890550427
 30
0.0
 10
1.155931220879272
 20
0.6119791219529866
 30
0.0
  0
SPLINE
  5
D0
330
8A
100
AcDbEntity
  8
0
  6
Continuous
 62
     8
370
     0
100
AcDbSpline
210
0.0
220
0.0
230
1.0
 70
    24
 71
     3
 72
     8
 73
     4
 74
     0
 42
0.000000001
 43
0.00000001
 40
5.0
 40
5.0
 40
5.0
 40
5.0
 40
6.0
 40
6.0
 40
6.0
 40
6.0
 10
1.487154618164736
 20
0.02098166469205
 30
0.0
 10
1.445210042728163
 20
0.02098166469205
 30
0.0
 10
1.403594203878849
 20
0.02098166469205
 30
0.0
 10
1.358252530020567
 20
0.02098166469205
 30
0.0
  0
SPLINE
  5
D1
330
8A
100
AcDbEntity
  8
0
  6
Continuous
 62
     8
370
     0
100
AcDbSpline
210
0.0
220
0.0
230
1.0
 70
     8
 71
     3
 72
     8
 73
     4
 74
     0
 42
0.000000001
 43
0.00000001
 40
4.0
 40
4.0
 40
4.0
 40
4.0
 40
5.0
 40
5.0
 40
5.0
 40
5.0
 10
1.617341837371248
 20
0.3961420746749176
 30
0.0
 10
1.574112284559385
 20
0.2715673142083528
 30
0.0
 10
1.530882578060469
 20
0.1469925921635305
 30
0.0
 10
1.487154618164736
 20
0.02098166469205
 30
0.0
  0
SPLINE
  5
D2
330
8A
100
AcDbEntity
  8
0
  6
Continuous
 62
     8
370
     0
100
AcDbSpline
210
0.0
220
0.0
230
1.0
 70
     8
 71
     3
 72
     8
 73
     4
 74
     0
 42
0.000000001
 43
0.00000001
 40
3.0
 40
3.0
 40
3.0
 40
3.0
 40
4.0
 40
4.0
 40
4.0
 40
4.0
 10
1.624299249855472
 20
0.3947778716284157
 30
0.0
 10
1.621980112360718
 20
0.3952325931699642
 30
0.0
 10
1.619660974865984
 20
0.3956873147115886
 30
0.0
 10
1.617341837371248
 20
0.3961420746749176
 30
0.0
  0
SPLINE
  5
D3
330
8A
100
AcDbEntity
  8
0
  6
Continuous
 62
     8
370
     0
100
AcDbSpline
210
0.0
220
0.0
230
1.0
 70
    24
 71
     3
 72
     8
 73
     4
 74
     0
 42
0.000000001
 43
0.00000001
 40
2.0
 40
2.0
 40
2.0
 40
2.0
 40
3.0
 40
3.0
 40
3.0
 40
3.0
 10
1.624299249855472
 20
0.0264862735488503
 30
0.0
 10
1.624299249855472
 20
0.1490446215756984
 30
0.0
 10
1.624299249855472
 20
0.2719112658129299
 30
0.0
 10
1.624299249855472
 20
0.3947778716284157
 30
0.0
  0
SPLINE
  5
D4
330
8A
100
AcDbEntity
  8
0
  6
Continuous
 62
     8
370
     0
100
AcDbSpline
210
0.0
220
0.0
230
1.0
 70
    24
 71
     3
 72
     8
 73
     4
 74
     0
 42
0.000000001
 43
0.00000001
 40
1.0
 40
1.0
 40
1.0
 40
1.0
 40
2.0
 40
2.0
 40
2.0
 40
2.0
 10
1.771964220772605
 20
0.0264862735488503
 30
0.0
 10
1.722299791426324
 20
0.0264862735488503
 30
0.0
 10
1.674864746341027
 20
0.0264862735488503
 30
0.0
 10
1.624299249855472
 20
0.0264862735488503
 30
0.0
  0
SPLINE
  5
D5
330
8A
100
AcDbEntity
  8
0
  6
Continuous
 62
     8
370
     0
100
AcDbSpline
210
0.0
220
0.0
230
1.0
 70
    24
 71
     3
 72
     8
 73
     4
 74
     0
 42
0.000000001
 43
0.00000001
 40
0.0
 40
0.0
 40
0.0
 40
0.0
 40
1.0
 40
1.0
 40
1.0
 40
1.0
 10
1.771964220772605
 20
0.2944888147063214
 30
0.0
 10
1.771964220772605
 20
0.2037081062473845
 30
0.0
 10
1.771964220772605
 20
0.1159242183039175
 30
0.0
 10
1.771964220772605
 20
0.0264862735488503
 30
0.0
  0
SPLINE
  5
D6
330
8A
100
AcDbEntity
  8
0
  6
Continuous
 62
     8
370
     0
100
AcDbSpline
210
0.0
220
0.0
230
1.0
 70
    24
 71
     3
 72
     8
 73
     4
 74
     0
 42
0.000000001
 43
0.00000001
 40
7.0
 40
7.0
 40
7.0
 40
7.0
 40
8.0
 40
8.0
 40
8.0
 40
8.0
 10
1.772696693224568
 20
0.72493731271878
 30
0.0
 10
1.772696693224568
 20
0.6274446107741074
 30
0.0
 10
1.772696693224568
 20
0.5294707339053845
 30
0.0
 10
1.772696693224568
 20
0.4292406159646945
 30
0.0
  0
SPLINE
  5
D7
330
8A
100
AcDbEntity
  8
0
  6
Continuous
 62
     8
370
     0
100
AcDbSpline
210
0.0
220
0.0
230
1.0
 70
     8
 71
     3
 72
     8
 73
     4
 74
     0
 42
0.000000001
 43
0.00000001
 40
6.0
 40
6.0
 40
6.0
 40
6.0
 40
7.0
 40
7.0
 40
7.0
 40
7.0
 10
1.7771757484364
 20
0.7284172868789588
 30
0.0
 10
1.77589999228373
 20
0.7284342116647347
 30
0.0
 10
1.774597955646521
 20
0.7264700336090679
 30
0.0
 10
1.772696693224568
 20
0.72493731271878
 30
0.0
  0
SPLINE
  5
D8
330
8A
100
AcDbEntity
  8
0
  6
Continuous
 62
     8
370
     0
100
AcDbSpline
210
0.0
220
0.0
230
1.0
 70
     8
 71
     3
 72
     8
 73
     4
 74
     0
 42
0.000000001
 43
0.00000001
 40
5.0
 40
5.0
 40
5.0
 40
5.0
 40
6.0
 40
6.0
 40
6.0
 40
6.0
 10
1.988237547146977
 20
0.724942864663213
 30
0.0
 10
1.917900058757163
 20
0.726758196816677
 30
0.0
 10
1.847533984577173
 20
0.7274827351749661
 30
0.0
 10
1.7771757484364
 20
0.7284172868789588
 30
0.0
  0
SPLINE
  5
D9
330
8A
100
AcDbEntity
  8
0
  6
Continuous
 62
     8
370
     0
100
AcDbSpline
210
0.0
220
0.0
230
1.0
 70
     8
 71
     3
 72
     8
 73
     4
 74
     0
 42
0.000000001
 43
0.00000001
 40
4.0
 40
4.0
 40
4.0
 40
4.0
 40
5.0
 40
5.0
 40
5.0
 40
5.0
 10
2.024827819655828
 20
0.7166598437914923
 30
0.0
 10
2.012985618163513
 20
0.7205966719010098
 30
0.0
 10
2.000513760851701
 20
0.7246260388219401
 30
0.0
 10
1.988237547146977
 20
0.724942864663213
 30
0.0
  0
SPLINE
  5
DA
330
8A
100
AcDbEntity
  8
0
  6
Continuous
 62
     8
370
     0
100
AcDbSpline
210
0.0
220
0.0
230
1.0
 70
     8
 71
     3
 72
     8
 73
     4
 74
     0
 42
0.000000001
 43
0.00000001
 40
3.0
 40
3.0
 40
3.0
 40
3.0
 40
4.0
 40
4.0
 40
4.0
 40
4.0
 10
2.122229442816038
 20
0.5877238100214116
 30
0.0
 10
2.119482747964745
 20
0.6536512102604237
 30
0.0
 10
2.086392697884135
 20
0.6961935322439563
 30
0.0
 10
2.024827819655828
 20
0.7166598437914923
 30
0.0
  0
SPLINE
  5
DB
330
8A
100
AcDbEntity
  8
0
  6
Continuous
 62
     8
370
     0
100
AcDbSpline
210
0.0
220
0.0
230
1.0
 70
     8
 71
     3
 72
     8
 73
     4
 74
     0
 42
0.000000001
 43
0.00000001
 40
2.0
 40
2.0
 40
2.0
 40
2.0
 40
3.0
 40
3.0
 40
3.0
 40
3.0
 10
2.042908793014375
 20
0.4507722861015534
 30
0.0
 10
2.099434580442348
 20
0.4778377656335913
 30
0.0
 10
2.124799551253694
 20
0.5260290278191184
 30
0.0
 10
2.122229442816038
 20
0.5877238100214116
 30
0.0
  0
SPLINE
  5
DC
330
8A
100
AcDbEntity
  8
0
  6
Continuous
 62
     8
370
     0
100
AcDbSpline
210
0.0
220
0.0
230
1.0
 70
     8
 71
     3
 72
     8
 73
     4
 74
     0
 42
0.000000001
 43
0.00000001
 40
1.0
 40
1.0
 40
1.0
 40
1.0
 40
2.0
 40
2.0
 40
2.0
 40
2.0
 10
1.968538863962737
 20
0.4301953198823512
 30
0.0
 10
1.99368083487319
 20
0.431315045263547
 30
0.0
 10
2.019958245665075
 20
0.4397831245472366
 30
0.0
 10
2.042908793014375
 20
0.4507722861015534
 30
0.0
  0
SPLINE
  5
DD
330
8A
100
AcDbEntity
  8
0
  6
Continuous
 62
     8
370
     0
100
AcDbSpline
210
0.0
220
0.0
230
1.0
 70
     8
 71
     3
 72
     8
 73
     4
 74
     0
 42
0.000000001
 43
0.00000001
 40
0.0
 40
0.0
 40
0.0
 40
0.0
 40
1.0
 40
1.0
 40
1.0
 40
1.0
 10
1.772696693224568
 20
0.4292406159646945
 30
0.0
 10
1.839738209267667
 20
0.4292406159646945
 30
0.0
 10
1.904244811206169
 20
0.427331938142857
 30
0.0
 10
1.968538863962737
 20
0.4301953198823512
 30
0.0
  0
SPLINE
  5
DE
330
8A
100
AcDbEntity
  8
0
  6
Continuous
 62
     8
370
     0
100
AcDbSpline
210
0.0
220
0.0
230
1.0
 70
    24
 71
     3
 72
     8
 73
     4
 74
     0
 42
0.000000001
 43
0.00000001
 40
7.0
 40
7.0
 40
7.0
 40
7.0
 40
8.0
 40
8.0
 40
8.0
 40
8.0
 10
0.5390554012363384
 20
0.1631507100704226
 30
0.0
 10
0.5390554012363384
 20
0.2621132556935445
 30
0.0
 10
0.5390554012363384
 20
0.3598850725211094
 30
0.0
 10
0.5390554012363384
 20
0.4629506780027703
 30
0.0
  0
SPLINE
  5
DF
330
8A
100
AcDbEntity
  8
0
  6
Continuous
 62
     8
370
     0
100
AcDbSpline
210
0.0
220
0.0
230
1.0
 70
     8
 71
     3
 72
     8
 73
     4
 74
     0
 42
0.000000001
 43
0.00000001
 40
6.0
 40
6.0
 40
6.0
 40
6.0
 40
7.0
 40
7.0
 40
7.0
 40
7.0
 10
0.5248162966050102
 20
0.1604724827972793
 30
0.0
 10
0.5295344120138378
 20
0.160476709191001
 30
0.0
 10
0.5342511442393161
 20
0.1622059189671589
 30
0.0
 10
0.5390554012363384
 20
0.1631507100704226
 30
0.0
  0
SPLINE
  5
E0
330
8A
100
AcDbEntity
  8
0
  6
Continuous
 62
     8
370
     0
100
AcDbSpline
210
0.0
220
0.0
230
1.0
 70
     8
 71
     3
 72
     8
 73
     4
 74
     0
 42
0.000000001
 43
0.00000001
 40
5.0
 40
5.0
 40
5.0
 40
5.0
 40
6.0
 40
6.0
 40
6.0
 40
6.0
 10
0.3514706816879914
 20
0.1613415830313804
 30
0.0
 10
0.4092002997320391
 20
0.1594312530738381
 30
0.0
 10
0.4670281237972034
 20
0.1604200755152499
 30
0.0
 10
0.5248162966050102
 20
0.1604724827972793
 30
0.0
  0
SPLINE
  5
E1
330
8A
100
AcDbEntity
  8
0
  6
Continuous
 62
     8
370
     0
100
AcDbSpline
210
0.0
220
0.0
230
1.0
 70
     8
 71
     3
 72
     8
 73
     4
 74
     0
 42
0.000000001
 43
0.00000001
 40
4.0
 40
4.0
 40
4.0
 40
4.0
 40
5.0
 40
5.0
 40
5.0
 40
5.0
 10
0.2828443064248989
 20
0.1742452240934728
 30
0.0
 10
0.3047319925993092
 20
0.1668458845140787
 30
0.0
 10
0.3284266157723944
 20
0.1621040244569259
 30
0.0
 10
0.3514706816879914
 20
0.1613415830313804
 30
0.0
  0
SPLINE
  5
E2
330
8A
100
AcDbEntity
  8
0
  6
Continuous
 62
     8
370
     0
100
AcDbSpline
210
0.0
220
0.0
230
1.0
 70
     8
 71
     3
 72
     8
 73
     4
 74
     0
 42
0.000000001
 43
0.00000001
 40
3.0
 40
3.0
 40
3.0
 40
3.0
 40
4.0
 40
4.0
 40
4.0
 40
4.0
 10
0.1909499432229893
 20
0.2882266055659034
 30
0.0
 10
0.1968572121351931
 20
0.2306200908441237
 30
0.0
 10
0.2288319553371043
 20
0.192504858640698
 30
0.0
 10
0.2828443064248989
 20
0.1742452240934728
 30
0.0
  0
SPLINE
  5
E3
330
8A
100
AcDbEntity
  8
0
  6
Continuous
 62
     8
370
     0
100
AcDbSpline
210
0.0
220
0.0
230
1.0
 70
     8
 71
     3
 72
     8
 73
     4
 74
     0
 42
0.000000001
 43
0.00000001
 40
2.0
 40
2.0
 40
2.0
 40
2.0
 40
3.0
 40
3.0
 40
3.0
 40
3.0
 10
0.2617660514897281
 20
0.4344948302049796
 30
0.0
 10
0.2049584404447451
 20
0.402667280769489
 30
0.0
 10
0.1844805255254232
 20
0.3513151371489273
 30
0.0
 10
0.1909499432229893
 20
0.2882266055659034
 30
0.0
  0
SPLINE
  5
E4
330
8A
100
AcDbEntity
  8
0
  6
Continuous
 62
     8
370
     0
100
AcDbSpline
210
0.0
220
0.0
230
1.0
 70
     8
 71
     3
 72
     8
 73
     4
 74
     0
 42
0.000000001
 43
0.00000001
 40
1.0
 40
1.0
 40
1.0
 40
1.0
 40
2.0
 40
2.0
 40
2.0
 40
2.0
 10
0.3252256988624132
 20
0.4563019075247557
 30
0.0
 10
0.3036116140481834
 20
0.4549463877962351
 30
0.0
 10
0.2810838597570612
 20
0.4453180097517018
 30
0.0
 10
0.2617660514897281
 20
0.4344948302049796
 30
0.0
  0
SPLINE
  5
E5
330
8A
100
AcDbEntity
  8
0
  6
Continuous
 62
     8
370
     0
100
AcDbSpline
210
0.0
220
0.0
230
1.0
 70
     8
 71
     3
 72
     8
 73
     4
 74
     0
 42
0.000000001
 43
0.00000001
 40
0.0
 40
0.0
 40
0.0
 40
0.0
 40
1.0
 40
1.0
 40
1.0
 40
1.0
 10
0.5390554012363384
 20
0.4629506780027703
 30
0.0
 10
0.4654456851481354
 20
0.4609859428316056
 30
0.0
 10
0.3952073249017251
 20
0.4606908637069915
 30
0.0
 10
0.3252256988624132
 20
0.4563019075247557
 30
0.0
  0
SPLINE
  5
E6
330
8A
100
AcDbEntity
  8
0
  6
Continuous
 62
     8
370
     0
100
AcDbSpline
210
0.0
220
0.0
230
1.0
 70
     8
 71
     3
 72
     8
 73
     4
 74
     0
 42
0.000000001
 43
0.00000001
 40
7.0
 40
7.0
 40
7.0
 40
7.0
 40
8.0
 40
8.0
 40
8.0
 40
8.0
 10
1.968538863962737
 20
0.4301953198823512
 30
0.0
 10
1.904244811206169
 20
0.427331938142857
 30
0.0
 10
1.839738209267667
 20
0.4292406159646945
 30
0.0
 10
1.772696693224568
 20
0.4292406159646945
 30
0.0
  0
SPLINE
  5
E7
330
8A
100
AcDbEntity
  8
0
  6
Continuous
 62
     8
370
     0
100
AcDbSpline
210
0.0
220
0.0
230
1.0
 70
     8
 71
     3
 72
     8
 73
     4
 74
     0
 42
0.000000001
 43
0.00000001
 40
6.0
 40
6.0
 40
6.0
 40
6.0
 40
7.0
 40
7.0
 40
7.0
 40
7.0
 10
2.042908793014375
 20
0.4507722861015534
 30
0.0
 10
2.019958245665075
 20
0.4397831245472366
 30
0.0
 10
1.99368083487319
 20
0.431315045263547
 30
0.0
 10
1.968538863962737
 20
0.4301953198823512
 30
0.0
  0
SPLINE
  5
E8
330
8A
100
AcDbEntity
  8
0
  6
Continuous
 62
     8
370
     0
100
AcDbSpline
210
0.0
220
0.0
230
1.0
 70
     8
 71
     3
 72
     8
 73
     4
 74
     0
 42
0.000000001
 43
0.00000001
 40
5.0
 40
5.0
 40
5.0
 40
5.0
 40
6.0
 40
6.0
 40
6.0
 40
6.0
 10
2.122229442816038
 20
0.5877238100214116
 30
0.0
 10
2.124799551253694
 20
0.5260290278191184
 30
0.0
 10
2.099434580442348
 20
0.4778377656335913
 30
0.0
 10
2.042908793014375
 20
0.4507722861015534
 30
0.0
  0
SPLINE
  5
E9
330
8A
100
AcDbEntity
  8
0
  6
Continuous
 62
     8
370
     0
100
AcDbSpline
210
0.0
220
0.0
230
1.0
 70
     8
 71
     3
 72
     8
 73
     4
 74
     0
 42
0.000000001
 43
0.00000001
 40
4.0
 40
4.0
 40
4.0
 40
4.0
 40
5.0
 40
5.0
 40
5.0
 40
5.0
 10
2.024827819655828
 20
0.7166598437914923
 30
0.0
 10
2.086392697884135
 20
0.6961935322439563
 30
0.0
 10
2.119482747964745
 20
0.6536512102604237
 30
0.0
 10
2.122229442816038
 20
0.5877238100214116
 30
0.0
  0
SPLINE
  5
EA
330
8A
100
AcDbEntity
  8
0
  6
Continuous
 62
     8
370
     0
100
AcDbSpline
210
0.0
220
0.0
230
1.0
 70
     8
 71
     3
 72
     8
 73
     4
 74
     0
 42
0.000000001
 43
0.00000001
 40
3.0
 40
3.0
 40
3.0
 40
3.0
 40
4.0
 40
4.0
 40
4.0
 40
4.0
 10
1.988237547146977
 20
0.724942864663213
 30
0.0
 10
2.000513760851701
 20
0.7246260388219401
 30
0.0
 10
2.012985618163513
 20
0.7205966719010098
 30
0.0
 10
2.024827819655828
 20
0.7166598437914923
 30
0.0
  0
SPLINE
  5
EB
330
8A
100
AcDbEntity
  8
0
  6
Continuous
 62
     8
370
     0
100
AcDbSpline
210
0.0
220
0.0
230
1.0
 70
     8
 71
     3
 72
     8
 73
     4
 74
     0
 42
0.000000001
 43
0.00000001
 40
2.0
 40
2.0
 40
2.0
 40
2.0
 40
3.0
 40
3.0
 40
3.0
 40
3.0
 10
1.7771757484364
 20
0.7284172868789588
 30
0.0
 10
1.847533984577173
 20
0.7274827351749661
 30
0.0
 10
1.917900058757163
 20
0.726758196816677
 30
0.0
 10
1.988237547146977
 20
0.724942864663213
 30
0.0
  0
SPLINE
  5
EC
330
8A
100
AcDbEntity
  8
0
  6
Continuous
 62
     8
370
     0
100
AcDbSpline
210
0.0
220
0.0
230
1.0
 70
     8
 71
     3
 72
     8
 73
     4
 74
     0
 42
0.000000001
 43
0.00000001
 40
1.0
 40
1.0
 40
1.0
 40
1.0
 40
2.0
 40
2.0
 40
2.0
 40
2.0
 10
1.772696693224568
 20
0.72493731271878
 30
0.0
 10
1.774597955646521
 20
0.7264700336090679
 30
0.0
 10
1.77589999228373
 20
0.7284342116647347
 30
0.0
 10
1.7771757484364
 20
0.7284172868789588
 30
0.0
  0
SPLINE
  5
ED
330
8A
100
AcDbEntity
  8
0
  6
Continuous
 62
     8
370
     0
100
AcDbSpline
210
0.0
220
0.0
230
1.0
 70
    24
 71
     3
 72
     8
 73
     4
 74
     0
 42
0.000000001
 43
0.00000001
 40
0.0
 40
0.0
 40
0.0
 40
0.0
 40
1.0
 40
1.0
 40
1.0
 40
1.0
 10
1.772696693224568
 20
0.4292406159646945
 30
0.0
 10
1.772696693224568
 20
0.5294707339053845
 30
0.0
 10
1.772696693224568
 20
0.6274446107741074
 30
0.0
 10
1.772696693224568
 20
0.72493731271878
 30
0.0
  0
SPLINE
  5
EE
330
8A
100
AcDbEntity
  8
0
  6
Continuous
 62
     8
370
     0
100
AcDbSpline
210
0.0
220
0.0
230
1.0
 70
     8
 71
     3
 72
     8
 73
     4
 74
     0
 42
0.000000001
 43
0.00000001
 40
7.0
 40
7.0
 40
7.0
 40
7.0
 40
8.0
 40
8.0
 40
8.0
 40
8.0
 10
0.3252256988624132
 20
0.4563019075247557
 30
0.0
 10
0.3952073249017251
 20
0.4606908637069915
 30
0.0
 10
0.4654456851481354
 20
0.4609859428316056
 30
0.0
 10
0.5390554012363384
 20
0.4629506780027703
 30
0.0
  0
SPLINE
  5
EF
330
8A
100
AcDbEntity
  8
0
  6
Continuous
 62
     8
370
     0
100
AcDbSpline
210
0.0
220
0.0
230
1.0
 70
     8
 71
     3
 72
     8
 73
     4
 74
     0
 42
0.000000001
 43
0.00000001
 40
6.0
 40
6.0
 40
6.0
 40
6.0
 40
7.0
 40
7.0
 40
7.0
 40
7.0
 10
0.2617660514897281
 20
0.4344948302049796
 30
0.0
 10
0.2810838597570612
 20
0.4453180097517018
 30
0.0
 10
0.3036116140481834
 20
0.4549463877962351
 30
0.0
 10
0.3252256988624132
 20
0.4563019075247557
 30
0.0
  0
SPLINE
  5
F0
330
8A
100
AcDbEntity
  8
0
  6
Continuous
 62
     8
370
     0
100
AcDbSpline
210
0.0
220
0.0
230
1.0
 70
     8
 71
     3
 72
     8
 73
     4
 74
     0
 42
0.000000001
 43
0.00000001
 40
5.0
 40
5.0
 40
5.0
 40
5.0
 40
6.0
 40
6.0
 40
6.0
 40
6.0
 10
0.1909499432229893
 20
0.2882266055659034
 30
0.0
 10
0.1844805255254232
 20
0.3513151371489273
 30
0.0
 10
0.2049584404447451
 20
0.402667280769489
 30
0.0
 10
0.2617660514897281
 20
0.4344948302049796
 30
0.0
  0
SPLINE
  5
F1
330
8A
100
AcDbEntity
  8
0
  6
Continuous
 62
     8
370
     0
100
AcDbSpline
210
0.0
220
0.0
230
1.0
 70
     8
 71
     3
 72
     8
 73
     4
 74
     0
 42
0.000000001
 43
0.00000001
 40
4.0
 40
4.0
 40
4.0
 40
4.0
 40
5.0
 40
5.0
 40
5.0
 40
5.0
 10
0.2828443064248989
 20
0.1742452240934728
 30
0.0
 10
0.2288319553371043
 20
0.192504858640698
 30
0.0
 10
0.1968572121351931
 20
0.2306200908441237
 30
0.0
 10
0.1909499432229893
 20
0.2882266055659034
 30
0.0
  0
SPLINE
  5
F2
330
8A
100
AcDbEntity
  8
0
  6
Continuous
 62
     8
370
     0
100
AcDbSpline
210
0.0
220
0.0
230
1.0
 70
     8
 71
     3
 72
     8
 73
     4
 74
     0
 42
0.000000001
 43
0.00000001
 40
3.0
 40
3.0
 40
3.0
 40
3.0
 40
4.0
 40
4.0
 40
4.0
 40
4.0
 10
0.3514706816879914
 20
0.1613415830313804
 30
0.0
 10
0.3284266157723944
 20
0.1621040244569259
 30
0.0
 10
0.3047319925993092
 20
0.1668458845140787
 30
0.0
 10
0.2828443064248989
 20
0.1742452240934728
 30
0.0
  0
SPLINE
  5
F3
330
8A
100
AcDbEntity
  8
0
  6
Continuous
 62
     8
370
     0
100
AcDbSpline
210
0.0
220
0.0
230
1.0
 70
     8
 71
     3
 72
     8
 73
     4
 74
     0
 42
0.000000001
 43
0.00000001
 40
2.0
 40
2.0
 40
2.0
 40
2.0
 40
3.0
 40
3.0
 40
3.0
 40
3.0
 10
0.5248162966050102
 20
0.1604724827972793
 30
0.0
 10
0.4670281237972034
 20
0.1604200755152499
 30
0.0
 10
0.4092002997320391
 20
0.1594312530738381
 30
0.0
 10
0.3514706816879914
 20
0.1613415830313804
 30
0.0
  0
SPLINE
  5
F4
330
8A
100
AcDbEntity
  8
0
  6
Continuous
 62
     8
370
     0
100
AcDbSpline
210
0.0
220
0.0
230
1.0
 70
     8
 71
     3
 72
     8
 73
     4
 74
     0
 42
0.000000001
 43
0.00000001
 40
1.0
 40
1.0
 40
1.0
 40
1.0
 40
2.0
 40
2.0
 40
2.0
 40
2.0
 10
0.5390554012363384
 20
0.1631507100704226
 30
0.0
 10
0.5342511442393161
 20
0.1622059189671589
 30
0.0
 10
0.5295344120138378
 20
0.160476709191001
 30
0.0
 10
0.5248162966050102
 20
0.1604724827972793
 30
0.0
  0
SPLINE
  5
F5
330
8A
100
AcDbEntity
  8
0
  6
Continuous
 62
     8
370
     0
100
AcDbSpline
210
0.0
220
0.0
230
1.0
 70
    24
 71
     3
 72
     8
 73
     4
 74
     0
 42
0.000000001
 43
0.00000001
 40
0.0
 40
0.0
 40
0.0
 40
0.0
 40
1.0
 40
1.0
 40
1.0
 40
1.0
 10
0.5390554012363384
 20
0.4629506780027703
 30
0.0
 10
0.5390554012363384
 20
0.3598850725211094
 30
0.0
 10
0.5390554012363384
 20
0.2621132556935445
 30
0.0
 10
0.5390554012363384
 20
0.1631507100704226
 30
0.0
  0
ENDBLK
  5
8C
330
8A
100
AcDbEntity
  8
0
100
AcDbBlockEnd
  0
BLOCK
  5
F7
330
F6
100
AcDbEntity
  8
0
100
AcDbBlockBegin
  2
Block1
 70
     0
 10
0.0
 20
0.0
 30
0.0
  3
Block1
  1

  0
LINE
  5
F9
330
F6
100
AcDbEntity
  8
0
  6
Continuous
 62
   179
370
    25
100
AcDbLine
 10
2.4727919268
 20
1.4652195651
 30
0.0
 11
2.4727919268
 21
1.9352195651
 31
0.0
  0
LINE
  5
FA
330
F6
100
AcDbEntity
  8
0
  6
Continuous
 62
   179
370
    25
100
AcDbLine
 10
2.4577919268
 20
1.9502195651
 30
0.0
 11
1.5958809512
 21
1.9502195651
 31
0.0
  0
LINE
  5
FB
330
F6
100
AcDbEntity
  8
0
  6
Continuous
 62
   179
370
    25
100
AcDbLine
 10
1.489741892
 20
1.9502195655
 30
0.0
 11
1.437791927
 21
1.9502195655
 31
0.0
  0
LINE
  5
FC
330
F6
100
AcDbEntity
  8
0
  6
Continuous
 62
   179
370
    25
100
AcDbLine
 10
1.422791927
 20
1.9652195655
 30
0.0
 11
1.422791927
 21
2.1225682281
 31
0.0
  0
LINE
  5
FD
330
F6
100
AcDbEntity
  8
0
  6
Continuous
 62
   179
370
    25
100
AcDbLine
 10
1.437791927
 20
2.1375682281
 30
0.0
 11
1.457791927
 21
2.1375682281
 31
0.0
  0
LINE
  5
FE
330
F6
100
AcDbEntity
  8
0
  6
Continuous
 62
   179
370
    25
100
AcDbLine
 10
1.472791927
 20
2.1225682281
 30
0.0
 11
1.472791927
 21
2.0152195655
 31
0.0
  0
LINE
  5
FF
330
F6
100
AcDbEntity
  8
0
  6
Continuous
 62
   179
370
    25
100
AcDbLine
 10
1.487791927
 20
2.0002195655
 30
0.0
 11
2.457791927
 21
2.0002195655
 31
0.0
  0
LINE
  5
100
330
F6
100
AcDbEntity
  8
0
  6
Continuous
 62
   179
370
    25
100
AcDbLine
 10
2.472791927
 20
2.0152195655
 30
0.0
 11
2.472791927
 21
2.3752173302
 31
0.0
  0
LINE
  5
101
330
F6
100
AcDbEntity
  8
0
  6
Continuous
 62
   179
370
    25
100
AcDbLine
 10
2.4827919272
 20
2.3951606841
 30
0.0
 11
2.4827919272
 21
2.605278447
 31
0.0
  0
LINE
  5
102
330
F6
100
AcDbEntity
  8
0
  6
Continuous
 62
   179
370
    25
100
AcDbLine
 10
2.472791927
 20
2.6252173302
 30
0.0
 11
2.472791927
 21
2.8599195655
 31
0.0
  0
LINE
  5
103
330
F6
100
AcDbEntity
  8
0
  6
Continuous
 62
   179
370
    25
100
AcDbLine
 10
2.488091927
 20
2.8752195655
 30
0.0
 11
2.507491927
 21
2.8752195655
 31
0.0
  0
LINE
  5
104
330
F6
100
AcDbEntity
  8
0
  6
Continuous
 62
   179
370
    25
100
AcDbLine
 10
2.522791927
 20
2.8599195655
 30
0.0
 11
2.522791927
 21
1.7233634671
 31
0.0
  0
LINE
  5
105
330
F6
100
AcDbEntity
  8
0
  6
Continuous
 62
   179
370
    25
100
AcDbLine
 10
2.522791927
 20
1.682375664
 30
0.0
 11
2.522791927
 21
0.5405195655
 31
0.0
  0
LINE
  5
106
330
F6
100
AcDbEntity
  8
0
  6
Continuous
 62
   179
370
    25
100
AcDbLine
 10
2.507491927
 20
0.5252195655
 30
0.0
 11
2.488091927
 21
0.5252195655
 31
0.0
  0
LINE
  5
107
330
F6
100
AcDbEntity
  8
0
  6
Continuous
 62
   179
370
    25
100
AcDbLine
 10
2.472791927
 20
0.5405195655
 30
0.0
 11
2.472791927
 21
0.7752173302
 31
0.0
  0
LINE
  5
108
330
F6
100
AcDbEntity
  8
0
  6
Continuous
 62
   179
370
    25
100
AcDbLine
 10
2.4827919272
 20
0.7951606841
 30
0.0
 11
2.4827919272
 21
1.005278447
 31
0.0
  0
LINE
  5
109
330
F6
100
AcDbEntity
  8
0
  6
Continuous
 62
   179
370
    25
100
AcDbLine
 10
2.472791927
 20
1.0252173302
 30
0.0
 11
2.472791927
 21
1.3852195655
 31
0.0
  0
LINE
  5
10A
330
F6
100
AcDbEntity
  8
0
  6
Continuous
 62
   179
370
    25
100
AcDbLine
 10
2.457791927
 20
1.4002195655
 30
0.0
 11
1.487791927
 21
1.4002195655
 31
0.0
  0
LINE
  5
10B
330
F6
100
AcDbEntity
  8
0
  6
Continuous
 62
   179
370
    25
100
AcDbLine
 10
1.472791927
 20
1.3852195655
 30
0.0
 11
1.472791927
 21
1.2775682281
 31
0.0
  0
LINE
  5
10C
330
F6
100
AcDbEntity
  8
0
  6
Continuous
 62
   179
370
    25
100
AcDbLine
 10
1.457791927
 20
1.2625682281
 30
0.0
 11
1.437791927
 21
1.2625682281
 31
0.0
  0
LINE
  5
10D
330
F6
100
AcDbEntity
  8
0
  6
Continuous
 62
   179
370
    25
100
AcDbLine
 10
1.422791927
 20
1.2775682281
 30
0.0
 11
1.422791927
 21
1.4352195655
 31
0.0
  0
LINE
  5
10E
330
F6
100
AcDbEntity
  8
0
  6
Continuous
 62
   179
370
    25
100
AcDbLine
 10
1.437791927
 20
1.4502195655
 30
0.0
 11
1.489627524
 21
1.4502195655
 31
0.0
  0
LINE
  5
10F
330
F6
100
AcDbEntity
  8
0
  6
Continuous
 62
   179
370
    25
100
AcDbLine
 10
1.5959953192
 20
1.4502195651
 30
0.0
 11
2.4577919268
 21
1.4502195651
 31
0.0
  0
LINE
  5
110
330
F6
100
AcDbEntity
  8
0
  6
Continuous
 62
     7
370
    18
100
AcDbLine
 10
1.472791927
 20
0.2849606575
 30
0.0
 11
1.602791927
 21
0.2649606575
 31
0.0
  0
LINE
  5
111
330
F6
100
AcDbEntity
  8
0
  6
Continuous
 62
     7
370
    18
100
AcDbLine
 10
1.602791927
 20
0.2649606575
 30
0.0
 11
1.602791927
 21
0.3049606575
 31
0.0
  0
LINE
  5
112
330
F6
100
AcDbEntity
  8
0
  6
Continuous
 62
     7
370
    18
100
AcDbLine
 10
1.602791927
 20
0.3049606575
 30
0.0
 11
1.472791927
 21
0.2849606575
 31
0.0
  0
LINE
  5
113
330
F6
100
AcDbEntity
  8
0
  6
Continuous
 62
     7
370
    18
100
AcDbLine
 10
2.472791927
 20
0.2849606575
 30
0.0
 11
2.342791927
 21
0.3049606575
 31
0.0
  0
LINE
  5
114
330
F6
100
AcDbEntity
  8
0
  6
Continuous
 62
     7
370
    18
100
AcDbLine
 10
2.342791927
 20
0.3049606575
 30
0.0
 11
2.342791927
 21
0.2649606575
 31
0.0
  0
LINE
  5
115
330
F6
100
AcDbEntity
  8
0
  6
Continuous
 62
     7
370
    18
100
AcDbLine
 10
2.342791927
 20
0.2649606575
 30
0.0
 11
2.472791927
 21
0.2849606575
 31
0.0
  0
LINE
  5
116
330
F6
100
AcDbEntity
  8
0
  6
Continuous
 62
     7
370
    18
100
AcDbLine
 10
1.472791927
 20
1.1775682281
 30
0.0
 11
1.472791927
 21
0.2455905788
 31
0.0
  0
LINE
  5
117
330
F6
100
AcDbEntity
  8
0
  6
Continuous
 62
     7
370
    18
100
AcDbLine
 10
2.472791927
 20
0.4405195655
 30
0.0
 11
2.472791927
 21
0.2455905788
 31
0.0
  0
LINE
  5
118
330
F6
100
AcDbEntity
  8
0
  6
Continuous
 62
     7
370
    18
100
AcDbLine
 10
1.472791927
 20
0.2849606575
 30
0.0
 11
1.794614977
 21
0.2849606575
 31
0.0
  0
LINE
  5
119
330
F6
100
AcDbEntity
  8
0
  6
Continuous
 62
     7
370
    18
100
AcDbLine
 10
2.472791927
 20
0.2849606575
 30
0.0
 11
2.150968877
 21
0.2849606575
 31
0.0
  0
LINE
  5
11A
330
F6
100
AcDbEntity
  8
0
  6
Continuous
 62
     7
370
    18
100
AcDbLine
 10
1.0853900302
 20
1.9502195655
 30
0.0
 11
1.0653900302
 21
1.8202195655
 31
0.0
  0
LINE
  5
11B
330
F6
100
AcDbEntity
  8
0
  6
Continuous
 62
     7
370
    18
100
AcDbLine
 10
1.0653900302
 20
1.8202195655
 30
0.0
 11
1.1053900302
 21
1.8202195655
 31
0.0
  0
LINE
  5
11C
330
F6
100
AcDbEntity
  8
0
  6
Continuous
 62
     7
370
    18
100
AcDbLine
 10
1.1053900302
 20
1.8202195655
 30
0.0
 11
1.0853900302
 21
1.9502195655
 31
0.0
  0
LINE
  5
11D
330
F6
100
AcDbEntity
  8
0
  6
Continuous
 62
     7
370
    18
100
AcDbLine
 10
1.0853900302
 20
1.4502195655
 30
0.0
 11
1.1053900302
 21
1.5802195655
 31
0.0
  0
LINE
  5
11E
330
F6
100
AcDbEntity
  8
0
  6
Continuous
 62
     7
370
    18
100
AcDbLine
 10
1.1053900302
 20
1.5802195655
 30
0.0
 11
1.0653900302
 21
1.5802195655
 31
0.0
  0
LINE
  5
11F
330
F6
100
AcDbEntity
  8
0
  6
Continuous
 62
     7
370
    18
100
AcDbLine
 10
1.0653900302
 20
1.5802195655
 30
0.0
 11
1.0853900302
 21
1.4502195655
 31
0.0
  0
LINE
  5
120
330
F6
100
AcDbEntity
  8
0
  6
Continuous
 62
     7
370
    18
100
AcDbLine
 10
1.337791927
 20
1.9502195655
 30
0.0
 11
1.0460199514
 21
1.9502195655
 31
0.0
  0
LINE
  5
121
330
F6
100
AcDbEntity
  8
0
  6
Continuous
 62
     7
370
    18
100
AcDbLine
 10
1.337791927
 20
1.4502195655
 30
0.0
 11
1.0460199514
 21
1.4502195655
 31
0.0
  0
LINE
  5
122
330
F6
100
AcDbEntity
  8
0
  6
Continuous
 62
     7
370
    18
100
AcDbLine
 10
1.0853900302
 20
1.9502195655
 30
0.0
 11
1.0853900302
 21
1.4502195655
 31
0.0
  0
LINE
  5
123
330
F6
100
AcDbEntity
  8
0
  6
Continuous
 62
     7
370
    18
100
AcDbLine
 10
1.0853900302
 20
1.2625682281
 30
0.0
 11
1.0653900302
 21
1.1325682281
 31
0.0
  0
LINE
  5
124
330
F6
100
AcDbEntity
  8
0
  6
Continuous
 62
     7
370
    18
100
AcDbLine
 10
1.0653900302
 20
1.1325682281
 30
0.0
 11
1.1053900302
 21
1.1325682281
 31
0.0
  0
LINE
  5
125
330
F6
100
AcDbEntity
  8
0
  6
Continuous
 62
     7
370
    18
100
AcDbLine
 10
1.1053900302
 20
1.1325682281
 30
0.0
 11
1.0853900302
 21
1.2625682281
 31
0.0
  0
LINE
  5
126
330
F6
100
AcDbEntity
  8
0
  6
Continuous
 62
     7
370
    18
100
AcDbLine
 10
1.0853900302
 20
1.4502195655
 30
0.0
 11
1.1053900302
 21
1.5802195655
 31
0.0
  0
LINE
  5
127
330
F6
100
AcDbEntity
  8
0
  6
Continuous
 62
     7
370
    18
100
AcDbLine
 10
1.1053900302
 20
1.5802195655
 30
0.0
 11
1.0653900302
 21
1.5802195655
 31
0.0
  0
LINE
  5
128
330
F6
100
AcDbEntity
  8
0
  6
Continuous
 62
     7
370
    18
100
AcDbLine
 10
1.0653900302
 20
1.5802195655
 30
0.0
 11
1.0853900302
 21
1.4502195655
 31
0.0
  0
LINE
  5
129
330
F6
100
AcDbEntity
  8
0
  6
Continuous
 62
     7
370
    18
100
AcDbLine
 10
1.337791927
 20
1.2625682281
 30
0.0
 11
1.0460199514
 21
1.2625682281
 31
0.0
  0
LINE
  5
12A
330
F6
100
AcDbEntity
  8
0
  6
Continuous
 62
     7
370
    18
100
AcDbLine
 10
1.337791927
 20
1.4502195655
 30
0.0
 11
1.0460199514
 21
1.4502195655
 31
0.0
  0
LINE
  5
12B
330
F6
100
AcDbEntity
  8
0
  6
Continuous
 62
     7
370
    18
100
AcDbLine
 10
1.0853900302
 20
1.2625682281
 30
0.0
 11
1.0853900302
 21
1.0125682281
 31
0.0
  0
LINE
  5
12C
330
F6
100
AcDbEntity
  8
0
  6
Continuous
 62
     7
370
    18
100
AcDbLine
 10
1.0853900302
 20
1.2625682281
 30
0.0
 11
1.0853900302
 21
1.4502195655
 31
0.0
  0
LINE
  5
12D
330
F6
100
AcDbEntity
  8
0
  6
Continuous
 62
     7
370
    18
100
AcDbLine
 10
1.0853900302
 20
1.4502195655
 30
0.0
 11
1.0853900302
 21
1.7002195655
 31
0.0
  0
LINE
  5
12E
330
F6
100
AcDbEntity
  8
0
  6
Continuous
 62
     7
370
    18
100
AcDbLine
 10
1.0853900302
 20
2.0002195655
 30
0.0
 11
1.1053900302
 21
2.1302195655
 31
0.0
  0
LINE
  5
12F
330
F6
100
AcDbEntity
  8
0
  6
Continuous
 62
     7
370
    18
100
AcDbLine
 10
1.1053900302
 20
2.1302195655
 30
0.0
 11
1.0653900302
 21
2.1302195655
 31
0.0
  0
LINE
  5
130
330
F6
100
AcDbEntity
  8
0
  6
Continuous
 62
     7
370
    18
100
AcDbLine
 10
1.0653900302
 20
2.1302195655
 30
0.0
 11
1.0853900302
 21
2.0002195655
 31
0.0
  0
LINE
  5
131
330
F6
100
AcDbEntity
  8
0
  6
Continuous
 62
     7
370
    18
100
AcDbLine
 10
1.0853900302
 20
2.8752195655
 30
0.0
 11
1.0653900302
 21
2.7452195655
 31
0.0
  0
LINE
  5
132
330
F6
100
AcDbEntity
  8
0
  6
Continuous
 62
     7
370
    18
100
AcDbLine
 10
1.0653900302
 20
2.7452195655
 30
0.0
 11
1.1053900302
 21
2.7452195655
 31
0.0
  0
LINE
  5
133
330
F6
100
AcDbEntity
  8
0
  6
Continuous
 62
     7
370
    18
100
AcDbLine
 10
1.1053900302
 20
2.7452195655
 30
0.0
 11
1.0853900302
 21
2.8752195655
 31
0.0
  0
LINE
  5
134
330
F6
100
AcDbEntity
  8
0
  6
Continuous
 62
     7
370
    18
100
AcDbLine
 10
1.387791927
 20
2.0002195655
 30
0.0
 11
1.0460199514
 21
2.0002195655
 31
0.0
  0
LINE
  5
135
330
F6
100
AcDbEntity
  8
0
  6
Continuous
 62
     7
370
    18
100
AcDbLine
 10
2.388091927
 20
2.8752195655
 30
0.0
 11
1.0460199514
 21
2.8752195655
 31
0.0
  0
LINE
  5
136
330
F6
100
AcDbEntity
  8
0
  6
Continuous
 62
     7
370
    18
100
AcDbLine
 10
1.0853900302
 20
2.0002195655
 30
0.0
 11
1.0853900302
 21
2.8752195655
 31
0.0
  0
LINE
  5
137
330
F6
100
AcDbEntity
  8
0
  6
Continuous
 62
     7
370
    18
100
AcDbLine
 10
0.9069489063
 20
0.928303366
 30
0.0
 11
1.1569489063
 21
0.928303366
 31
0.0
  0
LINE
  5
138
330
F6
100
AcDbEntity
  8
0
  6
Continuous
 62
     7
370
    18
100
AcDbLine
 10
1.1569489063
 20
0.928303366
 30
0.0
 11
1.4244345846
 21
1.2707362024
 31
0.0
  0
LINE
  5
139
330
F6
100
AcDbEntity
  8
0
  6
Continuous
 62
     7
370
    18
100
AcDbLine
 10
1.4244345846
 20
1.2707362024
 30
0.0
 11
1.3286469061
 21
1.1805989701
 31
0.0
  0
LINE
  5
13A
330
F6
100
AcDbEntity
  8
0
  6
Continuous
 62
     7
370
    18
100
AcDbLine
 10
1.3286469061
 20
1.1805989701
 30
0.0
 11
1.3601696662
 21
1.1559754937
 31
0.0
  0
LINE
  5
13B
330
F6
100
AcDbEntity
  8
0
  6
Continuous
 62
     7
370
    18
100
AcDbLine
 10
1.3601696662
 20
1.1559754937
 30
0.0
 11
1.4244345846
 21
1.2707362024
 31
0.0
  0
SPLINE
  5
13C
330
F6
100
AcDbEntity
  8
0
  6
Continuous
 62
   179
370
    25
100
AcDbSpline
210
0.0
220
0.0
230
1.0
 70
     8
 71
     3
 72
     8
 73
     4
 74
     0
 42
0.000000001
 43
0.00000001
 40
44.0
 40
44.0
 40
44.0
 40
44.0
 40
45.0
 40
45.0
 40
45.0
 40
45.0
 10
2.457791926817889
 20
1.450219565067056
 30
0.0
 10
2.466076198065081
 20
1.450219565067056
 30
0.0
 10
2.472791926819077
 20
1.456935293819162
 30
0.0
 10
2.472791926819077
 20
1.465219565068208
 30
0.0
  0
SPLINE
  5
13D
330
F6
100
AcDbEntity
  8
0
  6
Continuous
 62
   179
370
    25
100
AcDbSpline
210
0.0
220
0.0
230
1.0
 70
     8
 71
     3
 72
     8
 73
     4
 74
     0
 42
0.000000001
 43
0.00000001
 40
46.0
 40
46.0
 40
46.0
 40
46.0
 40
47.0
 40
47.0
 40
47.0
 40
47.0
 10
2.472791926819077
 20
1.935219565067535
 30
0.0
 10
2.472791926819077
 20
1.943503836314832
 30
0.0
 10
2.466076198065081
 20
1.950219565067079
 30
0.0
 10
2.457791926817889
 20
1.950219565067079
 30
0.0
  0
SPLINE
  5
13E
330
F6
100
AcDbEntity
  8
0
  6
Continuous
 62
   179
370
    25
100
AcDbSpline
210
0.0
220
0.0
230
1.0
 70
     8
 71
     3
 72
     8
 73
     4
 74
     0
 42
0.000000001
 43
0.00000001
 40
0.0
 40
0.0
 40
0.0
 40
0.0
 40
0.2695472450429293
 40
0.2695472450429293
 40
0.2695472450429293
 40
0.2695472450429293
 10
1.595880951210572
 20
1.950219565067079
 30
0.0
 10
1.594071484527841
 20
1.950260357661722
 30
0.0
 10
1.592321403511934
 20
1.949966094504894
 30
0.0
 10
1.590694403493621
 20
1.949387926805862
 30
0.0
  0
SPLINE
  5
13F
330
F6
100
AcDbEntity
  8
0
  6
Continuous
 62
   179
370
    25
100
AcDbSpline
210
0.0
220
0.0
230
1.0
 70
     8
 71
     3
 72
     8
 73
     4
 74
     0
 42
0.000000001
 43
0.00000001
 40
0.2780800636796444
 40
0.2780800636796444
 40
0.2780800636796444
 40
0.2780800636796444
 40
1.0
 40
1.0
 40
1.0
 40
1.0
 10
1.590694403493621
 20
1.949387926805862
 30
0.0
 10
1.586355720444105
 20
1.947732558339309
 30
0.0
 10
1.582915930652607
 20
1.944107159172213
 30
0.0
 10
1.581600556950907
 20
1.9394396188201
 30
0.0
  0
SPLINE
  5
140
330
F6
100
AcDbEntity
  8
0
  6
Continuous
 62
   179
370
    25
100
AcDbSpline
210
0.0
220
0.0
230
1.0
 70
     8
 71
     3
 72
    11
 73
     7
 74
     0
 42
0.000000001
 43
0.00000001
 40
0.0
 40
0.0
 40
0.0
 40
0.0
 40
1.0
 40
1.0
 40
1.0
 40
2.0
 40
2.0
 40
2.0
 40
2.0
 10
1.581600556950907
 20
1.9394396188201
 30
0.0
 10
1.577795691690497
 20
1.925938237338586
 30
0.0
 10
1.567244086848031
 20
1.915386632495244
 30
0.0
 10
1.553742705365607
 20
1.91158176723466
 30
0.0
 10
1.532320057374422
 20
1.905544585837689
 30
0.0
 10
1.510059467365521
 20
1.918016970829019
 30
0.0
 10
1.504022285968515
 20
1.9394396188201
 30
0.0
  0
SPLINE
  5
141
330
F6
100
AcDbEntity
  8
0
  6
Continuous
 62
   179
370
    25
100
AcDbSpline
210
0.0
220
0.0
230
1.0
 70
     8
 71
     3
 72
     8
 73
     4
 74
     0
 42
0.000000001
 43
0.00000001
 40
0.0
 40
0.0
 40
0.0
 40
0.0
 40
0.4014545929921456
 40
0.4014545929921456
 40
0.4014545929921456
 40
0.4014545929921456
 10
1.504022285968515
 20
1.9394396188201
 30
0.0
 10
1.503290815915562
 20
1.942035205142155
 30
0.0
 10
1.501902392751981
 20
1.944308520372168
 30
0.0
 10
1.500067764541736
 20
1.946099999209602
 30
0.0
  0
SPLINE
  5
142
330
F6
100
AcDbEntity
  8
0
  6
Continuous
 62
   179
370
    25
100
AcDbSpline
210
0.0
220
0.0
230
1.0
 70
     8
 71
     3
 72
     8
 73
     4
 74
     0
 42
0.000000001
 43
0.00000001
 40
51.41249269105559
 40
51.41249269105559
 40
51.41249269105559
 40
51.41249269105559
 40
52.0
 40
52.0
 40
52.0
 40
52.0
 10
1.500067764541736
 20
1.946099999209602
 30
0.0
 10
1.497347624912722
 20
1.948680055672588
 30
0.0
 10
1.49368581994098
 20
1.950219565534569
 30
0.0
 10
1.489741892036146
 20
1.950219565534569
 30
0.0
  0
SPLINE
  5
143
330
F6
100
AcDbEntity
  8
0
  6
Continuous
 62
   179
370
    25
100
AcDbSpline
210
0.0
220
0.0
230
1.0
 70
     8
 71
     3
 72
     8
 73
     4
 74
     0
 42
0.000000001
 43
0.00000001
 40
53.0
 40
53.0
 40
53.0
 40
53.0
 40
54.0
 40
54.0
 40
54.0
 40
54.0
 10
1.437791926997998
 20
1.950219565534569
 30
0.0
 10
1.429507655748918
 20
1.950219565534569
 30
0.0
 10
1.422791926996706
 20
1.956935294286676
 30
0.0
 10
1.422791926996706
 20
1.965219565535721
 30
0.0
  0
SPLINE
  5
144
330
F6
100
AcDbEntity
  8
0
  6
Continuous
 62
   179
370
    25
100
AcDbSpline
210
0.0
220
0.0
230
1.0
 70
     8
 71
     3
 72
     8
 73
     4
 74
     0
 42
0.000000001
 43
0.00000001
 40
55.0
 40
55.0
 40
55.0
 40
55.0
 40
56.0
 40
56.0
 40
56.0
 40
56.0
 10
1.422791926996706
 20
2.122568228077814
 30
0.0
 10
1.422791926996706
 20
2.130852499325042
 30
0.0
 10
1.429507655748918
 20
2.137568228077218
 30
0.0
 10
1.437791926997998
 20
2.137568228077218
 30
0.0
  0
SPLINE
  5
145
330
F6
100
AcDbEntity
  8
0
  6
Continuous
 62
   179
370
    25
100
AcDbSpline
210
0.0
220
0.0
230
1.0
 70
     8
 71
     3
 72
     8
 73
     4
 74
     0
 42
0.000000001
 43
0.00000001
 40
57.0
 40
57.0
 40
57.0
 40
57.0
 40
58.0
 40
58.0
 40
58.0
 40
58.0
 10
1.457791926996597
 20
2.137568228077218
 30
0.0
 10
1.466076198243789
 20
2.137568228077218
 30
0.0
 10
1.472791926997785
 20
2.130852499325042
 30
0.0
 10
1.472791926997785
 20
2.122568228077814
 30
0.0
  0
SPLINE
  5
146
330
F6
100
AcDbEntity
  8
0
  6
Continuous
 62
   179
370
    25
100
AcDbSpline
210
0.0
220
0.0
230
1.0
 70
     8
 71
     3
 72
     8
 73
     4
 74
     0
 42
0.000000001
 43
0.00000001
 40
1.0
 40
1.0
 40
1.0
 40
1.0
 40
2.0
 40
2.0
 40
2.0
 40
2.0
 10
1.472791926997785
 20
2.015219565535088
 30
0.0
 10
1.472791926997785
 20
2.00693529428772
 30
0.0
 10
1.479507655750032
 20
2.000219565535544
 30
0.0
 10
1.487791926997329
 20
2.000219565535544
 30
0.0
  0
SPLINE
  5
147
330
F6
100
AcDbEntity
  8
0
  6
Continuous
 62
   179
370
    25
100
AcDbSpline
210
0.0
220
0.0
230
1.0
 70
     8
 71
     3
 72
     8
 73
     4
 74
     0
 42
0.000000001
 43
0.00000001
 40
3.0
 40
3.0
 40
3.0
 40
3.0
 40
4.0
 40
4.0
 40
4.0
 40
4.0
 10
2.45779192699661
 20
2.000219565535544
 30
0.0
 10
2.466076198243802
 20
2.000219565535544
 30
0.0
 10
2.472791926997797
 20
2.00693529428772
 30
0.0
 10
2.472791926997797
 20
2.015219565535088
 30
0.0
  0
SPLINE
  5
148
330
F6
100
AcDbEntity
  8
0
  6
Continuous
 62
   179
370
    25
100
AcDbSpline
210
0.0
220
0.0
230
1.0
 70
     8
 71
     3
 72
     8
 73
     4
 74
     0
 42
0.000000001
 43
0.00000001
 40
5.0
 40
5.0
 40
5.0
 40
5.0
 40
6.0
 40
6.0
 40
6.0
 40
6.0
 10
2.472791926997797
 20
2.375217330190406
 30
0.0
 10
2.47279133403824
 20
2.379461575380805
 30
0.0
 10
2.474477093940339
 20
2.383532156985297
 30
0.0
 10
2.477478232200834
 20
2.386533287893528
 30
0.0
  0
SPLINE
  5
149
330
F6
100
AcDbEntity
  8
0
  6
Continuous
 62
   179
370
    25
100
AcDbSpline
210
0.0
220
0.0
230
1.0
 70
     8
 71
     3
 72
     8
 73
     4
 74
     0
 42
0.000000001
 43
0.00000001
 40
6.0
 40
6.0
 40
6.0
 40
6.0
 40
7.0
 40
7.0
 40
7.0
 40
7.0
 10
2.477478232200834
 20
2.386533287893528
 30
0.0
 10
2.481949069739828
 20
2.391004114478554
 30
0.0
 10
2.482791927152738
 20
2.393038948751708
 30
0.0
 10
2.482791927152738
 20
2.395160684066882
 30
0.0
  0
SPLINE
  5
14A
330
F6
100
AcDbEntity
  8
0
  6
Continuous
 62
   179
370
    25
100
AcDbSpline
210
0.0
220
0.0
230
1.0
 70
     8
 71
     3
 72
     8
 73
     4
 74
     0
 42
0.000000001
 43
0.00000001
 40
8.0
 40
8.0
 40
8.0
 40
8.0
 40
9.0
 40
9.0
 40
9.0
 40
9.0
 10
2.482791927152738
 20
2.605278447004391
 30
0.0
 10
2.482791927152738
 20
2.607400182319428
 30
0.0
 10
2.481949069739828
 20
2.60943501659265
 30
0.0
 10
2.480448774472
 20
2.610935308182301
 30
0.0
  0
SPLINE
  5
14B
330
F6
100
AcDbEntity
  8
0
  6
Continuous
 62
   179
370
    25
100
AcDbSpline
210
0.0
220
0.0
230
1.0
 70
     8
 71
     3
 72
     8
 73
     4
 74
     0
 42
0.000000001
 43
0.00000001
 40
9.0
 40
9.0
 40
9.0
 40
9.0
 40
10.0
 40
10.0
 40
10.0
 40
10.0
 10
2.480448774472
 20
2.610935308182301
 30
0.0
 10
2.474478189386732
 20
2.616905878639446
 30
0.0
 10
2.472792519741009
 20
2.620974634191415
 30
0.0
 10
2.472791926997797
 20
2.625217330188635
 30
0.0
  0
SPLINE
  5
14C
330
F6
100
AcDbEntity
  8
0
  6
Continuous
 62
   179
370
    25
100
AcDbSpline
210
0.0
220
0.0
230
1.0
 70
     8
 71
     3
 72
     8
 73
     4
 74
     0
 42
0.000000001
 43
0.00000001
 40
11.0
 40
11.0
 40
11.0
 40
11.0
 40
12.0
 40
12.0
 40
12.0
 40
12.0
 10
2.472791926997797
 20
2.859919565534629
 30
0.0
 10
2.472791926997797
 20
2.86836952220755
 30
0.0
 10
2.479641970324101
 20
2.875219565535498
 30
0.0
 10
2.488091926996917
 20
2.875219565535498
 30
0.0
  0
SPLINE
  5
14D
330
F6
100
AcDbEntity
  8
0
  6
Continuous
 62
   179
370
    25
100
AcDbSpline
210
0.0
220
0.0
230
1.0
 70
     8
 71
     3
 72
     8
 73
     4
 74
     0
 42
0.000000001
 43
0.00000001
 40
13.0
 40
13.0
 40
13.0
 40
13.0
 40
14.0
 40
14.0
 40
14.0
 40
14.0
 10
2.50749192699626
 20
2.875219565535498
 30
0.0
 10
2.515941883669042
 20
2.875219565535498
 30
0.0
 10
2.522791926997128
 20
2.86836952220755
 30
0.0
 10
2.522791926997128
 20
2.859919565534629
 30
0.0
  0
SPLINE
  5
14E
330
F6
100
AcDbEntity
  8
0
  6
Continuous
 62
   179
370
    25
100
AcDbSpline
210
0.0
220
0.0
230
1.0
 70
     8
 71
     3
 72
     8
 73
     4
 74
     0
 42
0.000000001
 43
0.00000001
 40
15.0
 40
15.0
 40
15.0
 40
15.0
 40
16.0
 40
16.0
 40
16.0
 40
16.0
 10
2.522791926997128
 20
1.723363467066072
 30
0.0
 10
2.522791926997128
 20
1.718436305530746
 30
0.0
 10
2.520521802510137
 20
1.713783934761029
 30
0.0
 10
2.516638080843003
 20
1.710751835354552
 30
0.0
  0
SPLINE
  5
14F
330
F6
100
AcDbEntity
  8
0
  6
Continuous
 62
   179
370
    25
100
AcDbSpline
210
0.0
220
0.0
230
1.0
 70
     8
 71
     3
 72
     8
 73
     4
 74
     0
 42
0.000000001
 43
0.00000001
 40
16.0
 40
16.0
 40
16.0
 40
16.0
 40
17.0
 40
17.0
 40
17.0
 40
17.0
 10
2.516638080843003
 20
1.710751835354552
 30
0.0
 10
2.512284823428404
 20
1.707353159972129
 30
0.0
 10
2.511510981793223
 20
1.70106897679718
 30
0.0
 10
2.514909657177393
 20
1.69671571938076
 30
0.0
  0
SPLINE
  5
150
330
F6
100
AcDbEntity
  8
0
  6
Continuous
 62
   179
370
    25
100
AcDbSpline
210
0.0
220
0.0
230
1.0
 70
     8
 71
     3
 72
     8
 73
     4
 74
     0
 42
0.000000001
 43
0.00000001
 40
17.0
 40
17.0
 40
17.0
 40
17.0
 40
18.0
 40
18.0
 40
18.0
 40
18.0
 10
2.514909657177393
 20
1.69671571938076
 30
0.0
 10
2.520521802510137
 20
1.691955196308744
 30
0.0
 10
2.522791926997128
 20
1.687302825539029
 30
0.0
 10
2.522791926997128
 20
1.682375664003772
 30
0.0
  0
SPLINE
  5
151
330
F6
100
AcDbEntity
  8
0
  6
Continuous
 62
   179
370
    25
100
AcDbSpline
210
0.0
220
0.0
230
1.0
 70
     8
 71
     3
 72
     8
 73
     4
 74
     0
 42
0.000000001
 43
0.00000001
 40
19.0
 40
19.0
 40
19.0
 40
19.0
 40
20.0
 40
20.0
 40
20.0
 40
20.0
 10
2.522791926997128
 20
0.5405195655352543
 30
0.0
 10
2.522791926997128
 20
0.532069608862473
 30
0.0
 10
2.515941883669042
 20
0.5252195655361348
 30
0.0
 10
2.50749192699626
 20
0.5252195655361348
 30
0.0
  0
SPLINE
  5
152
330
F6
100
AcDbEntity
  8
0
  6
Continuous
 62
   179
370
    25
100
AcDbSpline
210
0.0
220
0.0
230
1.0
 70
     8
 71
     3
 72
     8
 73
     4
 74
     0
 42
0.000000001
 43
0.00000001
 40
21.0
 40
21.0
 40
21.0
 40
21.0
 40
22.0
 40
22.0
 40
22.0
 40
22.0
 10
2.488091926996917
 20
0.5252195655361348
 30
0.0
 10
2.479641970324101
 20
0.5252195655361348
 30
0.0
 10
2.472791926997797
 20
0.532069608862473
 30
0.0
 10
2.472791926997797
 20
0.5405195655352543
 30
0.0
  0
SPLINE
  5
153
330
F6
100
AcDbEntity
  8
0
  6
Continuous
 62
   179
370
    25
100
AcDbSpline
210
0.0
220
0.0
230
1.0
 70
     8
 71
     3
 72
     8
 73
     4
 74
     0
 42
0.000000001
 43
0.00000001
 40
23.0
 40
23.0
 40
23.0
 40
23.0
 40
24.0
 40
24.0
 40
24.0
 40
24.0
 10
2.472791926997797
 20
0.7752173301873376
 30
0.0
 10
2.472791334036422
 20
0.7794615753794857
 30
0.0
 10
2.474477093940339
 20
0.7835321569859345
 30
0.0
 10
2.477478232200834
 20
0.7865332878922774
 30
0.0
  0
SPLINE
  5
154
330
F6
100
AcDbEntity
  8
0
  6
Continuous
 62
   179
370
    25
100
AcDbSpline
210
0.0
220
0.0
230
1.0
 70
     8
 71
     3
 72
     8
 73
     4
 74
     0
 42
0.000000001
 43
0.00000001
 40
24.0
 40
24.0
 40
24.0
 40
24.0
 40
25.0
 40
25.0
 40
25.0
 40
25.0
 10
2.477478232200834
 20
0.7865332878922774
 30
0.0
 10
2.481949069739828
 20
0.7910041144772337
 30
0.0
 10
2.482791927152738
 20
0.7930389487505262
 30
0.0
 10
2.482791927152738
 20
0.79516068406745
 30
0.0
  0
SPLINE
  5
155
330
F6
100
AcDbEntity
  8
0
  6
Continuous
 62
   179
370
    25
100
AcDbSpline
210
0.0
220
0.0
230
1.0
 70
     8
 71
     3
 72
     8
 73
     4
 74
     0
 42
0.000000001
 43
0.00000001
 40
26.0
 40
26.0
 40
26.0
 40
26.0
 40
27.0
 40
27.0
 40
27.0
 40
27.0
 10
2.482791927152738
 20
1.00527844700482
 30
0.0
 10
2.482791927152738
 20
1.007400182318107
 30
0.0
 10
2.481949069739828
 20
1.00943501659133
 30
0.0
 10
2.480448774473923
 20
1.010935308181119
 30
0.0
  0
SPLINE
  5
156
330
F6
100
AcDbEntity
  8
0
  6
Continuous
 62
   179
370
    25
100
AcDbSpline
210
0.0
220
0.0
230
1.0
 70
     8
 71
     3
 72
     8
 73
     4
 74
     0
 42
0.000000001
 43
0.00000001
 40
27.0
 40
27.0
 40
27.0
 40
27.0
 40
28.0
 40
28.0
 40
28.0
 40
28.0
 10
2.480448774473923
 20
1.010935308181119
 30
0.0
 10
2.474478189386732
 20
1.016905878639942
 30
0.0
 10
2.472792519739191
 20
1.020974634191913
 30
0.0
 10
2.472791926997797
 20
1.025217330190951
 30
0.0
  0
SPLINE
  5
157
330
F6
100
AcDbEntity
  8
0
  6
Continuous
 62
   179
370
    25
100
AcDbSpline
210
0.0
220
0.0
230
1.0
 70
     8
 71
     3
 72
     8
 73
     4
 74
     0
 42
0.000000001
 43
0.00000001
 40
29.0
 40
29.0
 40
29.0
 40
29.0
 40
30.0
 40
30.0
 40
30.0
 40
30.0
 10
2.472791926997797
 20
1.385219565536683
 30
0.0
 10
2.472791926997797
 20
1.393503836783981
 30
0.0
 10
2.466076198243802
 20
1.400219565536159
 30
0.0
 10
2.45779192699661
 20
1.400219565536159
 30
0.0
  0
SPLINE
  5
158
330
F6
100
AcDbEntity
  8
0
  6
Continuous
 62
   179
370
    25
100
AcDbSpline
210
0.0
220
0.0
230
1.0
 70
     8
 71
     3
 72
     8
 73
     4
 74
     0
 42
0.000000001
 43
0.00000001
 40
31.0
 40
31.0
 40
31.0
 40
31.0
 40
32.0
 40
32.0
 40
32.0
 40
32.0
 10
1.487791926997329
 20
1.400219565536159
 30
0.0
 10
1.479507655750032
 20
1.400219565536159
 30
0.0
 10
1.472791926997785
 20
1.393503836783981
 30
0.0
 10
1.472791926997785
 20
1.385219565536683
 30
0.0
  0
SPLINE
  5
159
330
F6
100
AcDbEntity
  8
0
  6
Continuous
 62
   179
370
    25
100
AcDbSpline
210
0.0
220
0.0
230
1.0
 70
     8
 71
     3
 72
     8
 73
     4
 74
     0
 42
0.000000001
 43
0.00000001
 40
33.0
 40
33.0
 40
33.0
 40
33.0
 40
34.0
 40
34.0
 40
34.0
 40
34.0
 10
1.472791926997785
 20
1.277568228075689
 30
0.0
 10
1.472791926997785
 20
1.269283956828392
 30
0.0
 10
1.466076198243789
 20
1.262568228076355
 30
0.0
 10
1.457791926996597
 20
1.262568228076355
 30
0.0
  0
SPLINE
  5
15A
330
F6
100
AcDbEntity
  8
0
  6
Continuous
 62
   179
370
    25
100
AcDbSpline
210
0.0
220
0.0
230
1.0
 70
     8
 71
     3
 72
     8
 73
     4
 74
     0
 42
0.000000001
 43
0.00000001
 40
35.0
 40
35.0
 40
35.0
 40
35.0
 40
36.0
 40
36.0
 40
36.0
 40
36.0
 10
1.437791926997998
 20
1.262568228076355
 30
0.0
 10
1.429507655748918
 20
1.262568228076355
 30
0.0
 10
1.422791926996706
 20
1.269283956828392
 30
0.0
 10
1.422791926996706
 20
1.277568228075689
 30
0.0
  0
SPLINE
  5
15B
330
F6
100
AcDbEntity
  8
0
  6
Continuous
 62
   179
370
    25
100
AcDbSpline
210
0.0
220
0.0
230
1.0
 70
     8
 71
     3
 72
     8
 73
     4
 74
     0
 42
0.000000001
 43
0.00000001
 40
37.0
 40
37.0
 40
37.0
 40
37.0
 40
38.0
 40
38.0
 40
38.0
 40
38.0
 10
1.422791926996706
 20
1.435219565535909
 30
0.0
 10
1.422791926996706
 20
1.443503836783208
 30
0.0
 10
1.429507655748918
 20
1.450219565534547
 30
0.0
 10
1.437791926997998
 20
1.450219565534547
 30
0.0
  0
SPLINE
  5
15C
330
F6
100
AcDbEntity
  8
0
  6
Continuous
 62
   179
370
    25
100
AcDbSpline
210
0.0
220
0.0
230
1.0
 70
     8
 71
     3
 72
     8
 73
     4
 74
     0
 42
0.000000001
 43
0.00000001
 40
0.0
 40
0.0
 40
0.0
 40
0.0
 40
0.9927741743074403
 40
0.9927741743074403
 40
0.9927741743074403
 40
0.9927741743074403
 10
1.489627524025127
 20
1.450219565534547
 30
0.0
 10
1.496280566210078
 20
1.450369809453604
 30
0.0
 10
1.502132298687694
 20
1.454752092163001
 30
0.0
 10
1.50401310057475
 20
1.461121739111476
 30
0.0
  0
SPLINE
  5
15D
330
F6
100
AcDbEntity
  8
0
  6
Continuous
 62
   179
370
    25
100
AcDbSpline
210
0.0
220
0.0
230
1.0
 70
     8
 71
     3
 72
    11
 73
     7
 74
     0
 42
0.000000001
 43
0.00000001
 40
0.0
 40
0.0
 40
0.0
 40
0.0
 40
1.0
 40
1.0
 40
1.0
 40
2.0
 40
2.0
 40
2.0
 40
2.0
 10
1.504053536056509
 20
1.461261136955223
 30
0.0
 10
1.507874432848227
 20
1.474673166396778
 30
0.0
 10
1.518357820851412
 20
1.485156554399928
 30
0.0
 10
1.53176985029199
 20
1.488977451191682
 30
0.0
 10
1.553175239476124
 20
1.495075542701162
 30
0.0
 10
1.57547121585931
 20
1.482666526139287
 30
0.0
 10
1.581569307369839
 20
1.461261136955223
 30
0.0
  0
SPLINE
  5
15E
330
F6
100
AcDbEntity
  8
0
  6
Continuous
 62
   179
370
    25
100
AcDbSpline
210
0.0
220
0.0
230
1.0
 70
     8
 71
     3
 72
     8
 73
     4
 74
     0
 42
0.000000001
 43
0.00000001
 40
0.0072258256803185
 40
0.0072258256803185
 40
0.0072258256803185
 40
0.0072258256803185
 40
1.0
 40
1.0
 40
1.0
 40
1.0
 10
1.581609742672789
 20
1.46112173864422
 30
0.0
 10
1.58349054455888
 20
1.454752091695619
 30
0.0
 10
1.589342277036558
 20
1.450369808986114
 30
0.0
 10
1.595995319221557
 20
1.450219565067056
 30
0.0
  0
HATCH
  5
15F
330
F6
100
AcDbEntity
  8
0
  6
Continuous
 62
     7
100
AcDbHatch
 10
0.0
 20
0.0
 30
0.0
210
0.0
220
0.0
230
1.0
  2
SOLID
 70
     1
 71
     0
 91
        1
 92
        0
 93
        3
 72
     1
 10
1.602791926997785
 20
0.2649606574901601
 11
1.602791926997785
 21
0.3049606574901597
 72
     1
 10
1.602791926997785
 20
0.3049606574901597
 11
1.472791926997785
 21
0.2849606574901593
 72
     1
 10
1.472791926997785
 20
0.2849606574901593
 11
1.602791926997785
 21
0.2649606574901601
 97
        0
 75
     0
 76
     1
 98
        1
 10
0.0
 20
0.0
  0
HATCH
  5
160
330
F6
100
AcDbEntity
  8
0
  6
Continuous
 62
     7
100
AcDbHatch
 10
0.0
 20
0.0
 30
0.0
210
0.0
220
0.0
230
1.0
  2
SOLID
 70
     1
 71
     0
 91
        1
 92
        0
 93
        3
 72
     1
 10
2.342791926997797
 20
0.3049606574901597
 11
2.342791926997797
 21
0.2649606574901601
 72
     1
 10
2.342791926997797
 20
0.2649606574901601
 11
2.472791926997797
 21
0.2849606574901593
 72
     1
 10
2.472791926997797
 20
0.2849606574901593
 11
2.342791926997797
 21
0.3049606574901597
 97
        0
 75
     0
 76
     1
 98
        1
 10
0.0
 20
0.0
  0
HATCH
  5
161
330
F6
100
AcDbEntity
  8
0
  6
Continuous
 62
     7
100
AcDbHatch
 10
0.0
 20
0.0
 30
0.0
210
0.0
220
0.0
230
1.0
  2
SOLID
 70
     1
 71
     0
 91
        1
 92
        0
 93
        3
 72
     1
 10
1.065390030171015
 20
1.820219565534568
 11
1.105390030171016
 21
1.820219565534568
 72
     1
 10
1.105390030171016
 20
1.820219565534568
 11
1.085390030171016
 21
1.950219565534568
 72
     1
 10
1.085390030171016
 20
1.950219565534568
 11
1.065390030171015
 21
1.820219565534568
 97
        0
 75
     0
 76
     1
 98
        1
 10
0.0
 20
0.0
  0
HATCH
  5
162
330
F6
100
AcDbEntity
  8
0
  6
Continuous
 62
     7
100
AcDbHatch
 10
0.0
 20
0.0
 30
0.0
210
0.0
220
0.0
230
1.0
  2
SOLID
 70
     1
 71
     0
 91
        1
 92
        0
 93
        3
 72
     1
 10
1.065390030173295
 20
1.132568228069822
 11
1.105390030173296
 21
1.132568228069822
 72
     1
 10
1.105390030173296
 20
1.132568228069822
 11
1.085390030171016
 21
1.262568228070173
 72
     1
 10
1.085390030171016
 20
1.262568228070173
 11
1.065390030173295
 21
1.132568228069822
 97
        0
 75
     0
 76
     1
 98
        1
 10
0.0
 20
0.0
  0
HATCH
  5
163
330
F6
100
AcDbEntity
  8
0
  6
Continuous
 62
     7
100
AcDbHatch
 10
0.0
 20
0.0
 30
0.0
210
0.0
220
0.0
230
1.0
  2
SOLID
 70
     1
 71
     0
 91
        1
 92
        0
 93
        3
 72
     1
 10
1.105390030169194
 20
2.130219565535542
 11
1.065390030169194
 21
2.130219565535542
 72
     1
 10
1.065390030169194
 20
2.130219565535542
 11
1.085390030169194
 21
2.000219565535544
 72
     1
 10
1.085390030169194
 20
2.000219565535544
 11
1.105390030169194
 21
2.130219565535542
 97
        0
 75
     0
 76
     1
 98
        1
 10
0.0
 20
0.0
  0
HATCH
  5
164
330
F6
100
AcDbEntity
  8
0
  6
Continuous
 62
     7
100
AcDbHatch
 10
0.0
 20
0.0
 30
0.0
210
0.0
220
0.0
230
1.0
  2
SOLID
 70
     1
 71
     0
 91
        1
 92
        0
 93
        3
 72
     1
 10
1.065390030169194
 20
2.745219565535496
 11
1.105390030169194
 21
2.745219565535496
 72
     1
 10
1.105390030169194
 20
2.745219565535496
 11
1.085390030169194
 21
2.875219565535498
 72
     1
 10
1.085390030169194
 20
2.875219565535498
 11
1.065390030169194
 21
2.745219565535496
 97
        0
 75
     0
 76
     1
 98
        1
 10
0.0
 20
0.0
  0
HATCH
  5
165
330
F6
100
AcDbEntity
  8
0
  6
Continuous
 62
     7
100
AcDbHatch
 10
0.0
 20
0.0
 30
0.0
210
0.0
220
0.0
230
1.0
  2
SOLID
 70
     1
 71
     0
 91
        1
 92
        0
 93
        3
 72
     1
 10
1.328646906085785
 20
1.180598970116504
 11
1.360169666238475
 21
1.155975493669099
 72
     1
 10
1.360169666238475
 20
1.155975493669099
 11
1.424434584616196
 21
1.270736202389047
 72
     1
 10
1.424434584616196
 20
1.270736202389047
 11
1.328646906085785
 21
1.180598970116504
 97
        0
 75
     0
 76
     1
 98
        1
 10
0.0
 20
0.0
  0
MTEXT
  5
167
330
F6
100
AcDbEntity
  8
0
  6
Continuous
 62
     7
370
    18
100
AcDbMText
 10
0.0029763381
 20
0.9972390498
 30
0.0
 40
0.1377952756
 41
0.0
 71
     1
 72
     1
  1
1/16" LEG
  7
SLDTEXTSTYLE1
 73
     1
 44
1.0
  0
MTEXT
  5
168
330
F6
100
AcDbEntity
  8
0
  6
Continuous
 62
     7
370
    18
100
AcDbMText
 10
0.6513212104
 20
1.757426697
 30
0.0
 40
0.14
 41
0.0
 71
     1
 72
     1
  1
1/2"
  7
SLDTEXTSTYLE1
 73
     1
 44
1.0
  0
MTEXT
  5
169
330
F6
100
AcDbEntity
  8
0
  6
Continuous
 62
     7
370
    18
100
AcDbMText
 10
1.9622093989
 20
0.8106384253
 30
0.0
 40
0.1354166667
 41
0.0
 71
     2
 72
     1
  1
1/2"
  7
SLDTEXTSTYLE1
 73
     1
 44
1.0
  0
MTEXT
  5
16A
330
F6
100
AcDbEntity
  8
0
  6
Continuous
 62
     7
370
    18
100
AcDbMText
 10
1.9622093989
 20
0.5907127959
 30
0.0
 40
0.1354166667
 41
0.0
 71
     2
 72
     1
  1
3/4"
  7
SLDTEXTSTYLE1
 73
     1
 44
1.0
  0
MTEXT
  5
16C
330
F6
100
AcDbEntity
  8
0
  6
Continuous
 62
     7
370
    18
100
AcDbMText
 10
1.972459676
 20
0.3707871665
 30
0.0
 40
0.1354166667
 41
0.0
 71
     2
 72
     1
  1
- or -
  7
SLDTEXTSTYLE2
 73
     1
 44
1.0
  0
MTEXT
  5
16D
330
F6
100
AcDbEntity
  8
0
  6
Continuous
 62
     7
370
    18
100
AcDbMText
 10
1.9677577214
 20
0.1508615371
 30
0.0
 40
0.1354166667
 41
0.0
 71
     2
 72
     1
  1
1"
  7
SLDTEXTSTYLE1
 73
     1
 44
1.0
  0
MTEXT
  5
16E
330
F6
100
AcDbEntity
  8
0
  6
Continuous
 62
     7
370
    18
100
AcDbMText
 10
0.5478767554
 20
1.4147929829
 30
0.0
 40
0.14
 41
0.0
 71
     1
 72
     1
  1
3/16"
  7
SLDTEXTSTYLE1
 73
     1
 44
1.0
  0
MTEXT
  5
16F
330
F6
100
AcDbEntity
  8
0
  6
Continuous
 62
     7
370
    18
100
AcDbMText
 10
0.6513212104
 20
2.482339938
 30
0.0
 40
0.14
 41
0.0
 71
     1
 72
     1
  1
7/8"
  7
SLDTEXTSTYLE1
 73
     1
 44
1.0
  0
ENDBLK
  5
F8
330
F6
100
AcDbEntity
  8
0
100
AcDbBlockEnd
  0
BLOCK
  5
171
330
170
100
AcDbEntity
  8
0
100
AcDbBlockBegin
  2
Block13_
 70
     0
 10
0.0
 20
0.0
 30
0.0
  3
Block13_
  1

  0
LINE
  5
173
330
170
100
AcDbEntity
  8
0
  6
Continuous
 62
   179
370
    25
100
AcDbLine
 10
8.3182383938
 20
1.0903103574
 30
0.0
 11
4.3207109202
 21
1.0903103574
 31
0.0
  0
LINE
  5
174
330
170
100
AcDbEntity
  8
0
  6
Continuous
 62
   179
370
    25
100
AcDbLine
 10
4.2628838549
 20
1.5098410376
 30
0.0
 11
8.3182383938
 21
1.5098410376
 31
0.0
  0
LINE
  5
175
330
170
100
AcDbEntity
  8
0
  6
Continuous
 62
   179
370
    25
100
AcDbLine
 10
8.3182383938
 20
1.7373486777
 30
0.0
 11
4.2315257105
 21
1.7373486777
 31
0.0
  0
LINE
  5
176
330
170
100
AcDbEntity
  8
0
  6
Continuous
 62
   179
370
    25
100
AcDbLine
 10
8.3182383938
 20
1.7223486643
 30
0.0
 11
8.3182383938
 21
1.7373486777
 31
0.0
  0
LINE
  5
177
330
170
100
AcDbEntity
  8
0
  6
Continuous
 62
   179
370
    25
100
AcDbLine
 10
8.3182383938
 20
1.7223486643
 30
0.0
 11
4.2335930999
 21
1.7223486643
 31
0.0
  0
LINE
  5
178
330
170
100
AcDbEntity
  8
0
  6
Continuous
 62
   179
370
    25
100
AcDbLine
 10
8.3182383938
 20
1.564999992
 30
0.0
 11
8.3182383938
 21
1.7223486643
 31
0.0
  0
LINE
  5
179
330
170
100
AcDbEntity
  8
0
  6
Continuous
 62
   179
370
    25
100
AcDbLine
 10
8.3182383938
 20
1.564999992
 30
0.0
 11
4.2552807427
 21
1.564999992
 31
0.0
  0
LINE
  5
17A
330
170
100
AcDbEntity
  8
0
  6
Continuous
 62
   179
370
    25
100
AcDbLine
 10
8.3182383938
 20
1.549999997
 30
0.0
 11
8.3182383938
 21
1.564999992
 31
0.0
  0
LINE
  5
17B
330
170
100
AcDbEntity
  8
0
  6
Continuous
 62
   179
370
    25
100
AcDbLine
 10
8.3182383938
 20
1.549999997
 30
0.0
 11
4.2573481322
 21
1.549999997
 31
0.0
  0
LINE
  5
17C
330
170
100
AcDbEntity
  8
0
  6
Continuous
 62
   179
370
    25
100
AcDbLine
 10
8.3182383938
 20
1.035000008
 30
0.0
 11
4.3283339788
 21
1.035000008
 31
0.0
  0
LINE
  5
17D
330
170
100
AcDbEntity
  8
0
  6
Continuous
 62
   179
370
    25
100
AcDbLine
 10
8.3182383938
 20
0.8773486558
 30
0.0
 11
8.3182383938
 21
1.035000008
 31
0.0
  0
LINE
  5
17E
330
170
100
AcDbEntity
  8
0
  6
Continuous
 62
   179
370
    25
100
AcDbLine
 10
8.3182383938
 20
0.8773486558
 30
0.0
 11
4.3500638611
 21
0.8773486558
 31
0.0
  0
LINE
  5
17F
330
170
100
AcDbEntity
  8
0
  6
Continuous
 62
   179
370
    25
100
AcDbLine
 10
8.3182383938
 20
0.8623486791
 30
0.0
 11
8.3182383938
 21
0.8773486558
 31
0.0
  0
LINE
  5
180
330
170
100
AcDbEntity
  8
0
  6
Continuous
 62
   179
370
    25
100
AcDbLine
 10
8.3182383938
 20
0.8623486791
 30
0.0
 11
4.3521312506
 21
0.8623486791
 31
0.0
  0
LINE
  5
181
330
170
100
AcDbEntity
  8
0
  6
Continuous
 62
   179
370
    25
100
AcDbLine
 10
8.3182383938
 20
1.050000003
 30
0.0
 11
4.3262665894
 21
1.050000003
 31
0.0
  0
LINE
  5
182
330
170
100
AcDbEntity
  8
0
  6
Continuous
 62
   179
370
    25
100
AcDbLine
 10
8.3182383938
 20
1.035000008
 30
0.0
 11
8.3182383938
 21
1.050000003
 31
0.0
  0
LINE
  5
183
330
170
100
AcDbEntity
  8
0
  6
Continuous
 62
   179
370
    25
100
AcDbLine
 10
8.3182383938
 20
1.0609717529
 30
0.0
 11
4.3247541802
 21
1.0609717529
 31
0.0
  0
LINE
  5
184
330
170
100
AcDbEntity
  8
0
  6
Continuous
 62
   179
370
    25
100
AcDbLine
 10
8.3182383938
 20
1.050000003
 30
0.0
 11
8.3182383938
 21
1.0609021787
 31
0.0
  0
LINE
  5
185
330
170
100
AcDbEntity
  8
0
  6
Continuous
 62
   179
370
    25
100
AcDbLine
 10
8.3182383938
 20
1.5458804346
 30
0.0
 11
4.257916019
 21
1.5458804346
 31
0.0
  0
LINE
  5
186
330
170
100
AcDbEntity
  8
0
  6
Continuous
 62
   179
370
    25
100
AcDbLine
 10
8.3182383938
 20
1.5458804346
 30
0.0
 11
8.3182383938
 21
1.549999997
 31
0.0
  0
LINE
  5
187
330
170
100
AcDbEntity
  8
0
  6
Continuous
 62
   179
370
    25
100
AcDbLine
 10
8.3182383938
 20
1.5392200482
 30
0.0
 11
4.2588347283
 21
1.5392200482
 31
0.0
  0
LINE
  5
188
330
170
100
AcDbEntity
  8
0
  6
Continuous
 62
   179
370
    25
100
AcDbLine
 10
8.3182383938
 20
1.5392200482
 30
0.0
 11
8.3182383938
 21
1.5458804346
 31
0.0
  0
LINE
  5
189
330
170
100
AcDbEntity
  8
0
  6
Continuous
 62
   179
370
    25
100
AcDbLine
 10
8.3182383938
 20
1.0610415655
 30
0.0
 11
8.3182383938
 21
1.0895858141
 31
0.0
  0
LINE
  5
18A
330
170
100
AcDbEntity
  8
0
  6
Continuous
 62
   179
370
    25
100
AcDbLine
 10
8.3182383938
 20
0.3863137416
 30
0.0
 11
4.2385597626
 21
0.3863137416
 31
0.0
  0
LINE
  5
18B
330
170
100
AcDbEntity
  8
0
  6
Continuous
 62
   179
370
    25
100
AcDbLine
 10
8.3182383938
 20
0.3749977324
 30
0.0
 11
4.2401191045
 21
0.3749977324
 31
0.0
  0
LINE
  5
18C
330
170
100
AcDbEntity
  8
0
  6
Continuous
 62
   179
370
    25
100
AcDbLine
 10
8.3182383938
 20
0.3749977324
 30
0.0
 11
8.3182383938
 21
0.3863137416
 31
0.0
  0
LINE
  5
18D
330
170
100
AcDbEntity
  8
0
  6
Continuous
 62
   179
370
    25
100
AcDbLine
 10
8.3182383938
 20
1.9863137516
 30
0.0
 11
4.3281216079
 21
1.9863137516
 31
0.0
  0
LINE
  5
18E
330
170
100
AcDbEntity
  8
0
  6
Continuous
 62
   179
370
    25
100
AcDbLine
 10
8.3182383938
 20
1.9749977424
 30
0.0
 11
4.3168049387
 21
1.9749977424
 31
0.0
  0
LINE
  5
18F
330
170
100
AcDbEntity
  8
0
  6
Continuous
 62
   179
370
    25
100
AcDbLine
 10
8.3182383938
 20
1.9749977424
 30
0.0
 11
8.3182383938
 21
1.9863137516
 31
0.0
  0
LINE
  5
190
330
170
100
AcDbEntity
  8
0
  6
Continuous
 62
   179
370
    25
100
AcDbLine
 10
8.3182383938
 20
2.474999973
 30
0.0
 11
4.3090375617
 21
2.474999973
 31
0.0
  0
LINE
  5
191
330
170
100
AcDbEntity
  8
0
  6
Continuous
 62
   179
370
    25
100
AcDbLine
 10
8.3182383938
 20
2.4597000297
 30
0.0
 11
4.3111460174
 21
2.4597000297
 31
0.0
  0
LINE
  5
192
330
170
100
AcDbEntity
  8
0
  6
Continuous
 62
   179
370
    25
100
AcDbLine
 10
8.3182383938
 20
2.4597000297
 30
0.0
 11
8.3182383938
 21
2.474999973
 31
0.0
  0
LINE
  5
193
330
170
100
AcDbEntity
  8
0
  6
Continuous
 62
   179
370
    25
100
AcDbLine
 10
8.3182383938
 20
0.6249977843
 30
0.0
 11
4.2668050896
 21
0.6249977843
 31
0.0
  0
LINE
  5
194
330
170
100
AcDbEntity
  8
0
  6
Continuous
 62
   179
370
    25
100
AcDbLine
 10
8.3182383938
 20
0.6107157693
 30
0.0
 11
4.2525234412
 21
0.6107157693
 31
0.0
  0
LINE
  5
195
330
170
100
AcDbEntity
  8
0
  6
Continuous
 62
   179
370
    25
100
AcDbLine
 10
8.3182383938
 20
0.6107157693
 30
0.0
 11
8.3182383938
 21
0.6249977843
 31
0.0
  0
LINE
  5
196
330
170
100
AcDbEntity
  8
0
  6
Continuous
 62
   179
370
    25
100
AcDbLine
 10
8.3182383938
 20
1.7389217329
 30
0.0
 11
8.3182383938
 21
1.9749977424
 31
0.0
  0
LINE
  5
197
330
170
100
AcDbEntity
  8
0
  6
Continuous
 62
   179
370
    25
100
AcDbLine
 10
8.3182383938
 20
2.2249977943
 30
0.0
 11
4.3434967903
 21
2.2249977943
 31
0.0
  0
LINE
  5
198
330
170
100
AcDbEntity
  8
0
  6
Continuous
 62
   179
370
    25
100
AcDbLine
 10
8.3182383938
 20
2.2249977943
 30
0.0
 11
8.3182383938
 21
2.4597000297
 31
0.0
  0
LINE
  5
199
330
170
100
AcDbEntity
  8
0
  6
Continuous
 62
   179
370
    25
100
AcDbLine
 10
8.3182383938
 20
2.210715706
 30
0.0
 11
4.3454656209
 21
2.210715706
 31
0.0
  0
LINE
  5
19A
330
170
100
AcDbEntity
  8
0
  6
Continuous
 62
   179
370
    25
100
AcDbLine
 10
8.3182383938
 20
2.210715706
 30
0.0
 11
8.3182383938
 21
2.2249977943
 31
0.0
  0
LINE
  5
19B
330
170
100
AcDbEntity
  8
0
  6
Continuous
 62
   179
370
    25
100
AcDbLine
 10
8.3182383938
 20
1.0964759695
 30
0.0
 11
8.3182383938
 21
1.5032649469
 31
0.0
  0
LINE
  5
19C
330
170
100
AcDbEntity
  8
0
  6
Continuous
 62
   179
370
    25
100
AcDbLine
 10
8.3182383938
 20
0.1402999703
 30
0.0
 11
4.2724698775
 21
0.1402999703
 31
0.0
  0
LINE
  5
19D
330
170
100
AcDbEntity
  8
0
  6
Continuous
 62
   179
370
    25
100
AcDbLine
 10
8.3182383938
 20
0.1402999703
 30
0.0
 11
8.3182383938
 21
0.3749977324
 31
0.0
  0
LINE
  5
19E
330
170
100
AcDbEntity
  8
0
  6
Continuous
 62
   179
370
    25
100
AcDbLine
 10
8.3182383938
 20
0.125000027
 30
0.0
 11
4.2745783331
 21
0.125000027
 31
0.0
  0
LINE
  5
19F
330
170
100
AcDbEntity
  8
0
  6
Continuous
 62
   179
370
    25
100
AcDbLine
 10
8.3182383938
 20
0.125000027
 30
0.0
 11
8.3182383938
 21
0.1402999703
 31
0.0
  0
LINE
  5
1A0
330
170
100
AcDbEntity
  8
0
  6
Continuous
 62
   179
370
    25
100
AcDbLine
 10
8.3182383938
 20
0.6249977843
 30
0.0
 11
8.3182383938
 21
0.8607755873
 31
0.0
  0
LINE
  5
1A1
330
170
100
AcDbEntity
  8
0
  6
Continuous
 62
   179
370
    25
100
AcDbLine
 10
8.3182383938
 20
0.3949410887
 30
0.0
 11
4.2373711896
 21
0.3949410887
 31
0.0
  0
LINE
  5
1A2
330
170
100
AcDbEntity
  8
0
  6
Continuous
 62
   179
370
    25
100
AcDbLine
 10
8.3182383938
 20
0.3863137416
 30
0.0
 11
8.3182383938
 21
0.3949410887
 31
0.0
  0
LINE
  5
1A3
330
170
100
AcDbEntity
  8
0
  6
Continuous
 62
   179
370
    25
100
AcDbLine
 10
8.3182383938
 20
1.9949410986
 30
0.0
 11
4.3367490283
 21
1.9949410986
 31
0.0
  0
LINE
  5
1A4
330
170
100
AcDbEntity
  8
0
  6
Continuous
 62
   179
370
    25
100
AcDbLine
 10
8.3182383938
 20
1.9863137516
 30
0.0
 11
8.3182383938
 21
1.9949410986
 31
0.0
  0
LINE
  5
1A5
330
170
100
AcDbEntity
  8
0
  6
Continuous
 62
   179
370
    25
100
AcDbLine
 10
8.3182383938
 20
2.2050589113
 30
0.0
 11
4.3462447052
 21
2.2050589113
 31
0.0
  0
LINE
  5
1A6
330
170
100
AcDbEntity
  8
0
  6
Continuous
 62
   179
370
    25
100
AcDbLine
 10
8.3182383938
 20
2.2050589113
 30
0.0
 11
8.3182383938
 21
2.210715706
 31
0.0
  0
LINE
  5
1A7
330
170
100
AcDbEntity
  8
0
  6
Continuous
 62
   179
370
    25
100
AcDbLine
 10
8.3182383938
 20
0.6050589014
 30
0.0
 11
4.2468668666
 21
0.6050589014
 31
0.0
  0
LINE
  5
1A8
330
170
100
AcDbEntity
  8
0
  6
Continuous
 62
   179
370
    25
100
AcDbLine
 10
8.3182383938
 20
0.6050589014
 30
0.0
 11
8.3182383938
 21
0.6107157693
 31
0.0
  0
LINE
  5
1A9
330
170
100
AcDbEntity
  8
0
  6
Continuous
 62
   179
370
    25
100
AcDbLine
 10
8.3182383938
 20
0.3949410887
 30
0.0
 11
8.3182383938
 21
0.6050589014
 31
0.0
  0
LINE
  5
1AA
330
170
100
AcDbEntity
  8
0
  6
Continuous
 62
   179
370
    25
100
AcDbLine
 10
8.3182383938
 20
1.9949410986
 30
0.0
 11
8.3182383938
 21
2.2050589113
 31
0.0
  0
LINE
  5
1AB
330
170
100
AcDbEntity
  8
0
  6
Continuous
 62
   179
370
    25
100
AcDbLine
 10
4.1207107972
 20
1.0903103574
 30
0.0
 11
0.0
 21
1.0903103574
 31
0.0
  0
LINE
  5
1AC
330
170
100
AcDbEntity
  8
0
  6
Continuous
 62
   179
370
    25
100
AcDbLine
 10
0.0
 20
1.5098410376
 30
0.0
 11
4.0628837319
 21
1.5098410376
 31
0.0
  0
LINE
  5
1AD
330
170
100
AcDbEntity
  8
0
  6
Continuous
 62
   179
370
    25
100
AcDbLine
 10
4.0315255875
 20
1.7373486777
 30
0.0
 11
0.0
 21
1.7373486777
 31
0.0
  0
LINE
  5
1AE
330
170
100
AcDbEntity
  8
0
  6
Continuous
 62
   179
370
    25
100
AcDbLine
 10
4.0335929769
 20
1.7223486643
 30
0.0
 11
0.0
 21
1.7223486643
 31
0.0
  0
LINE
  5
1AF
330
170
100
AcDbEntity
  8
0
  6
Continuous
 62
   179
370
    25
100
AcDbLine
 10
0.0
 20
1.7223486643
 30
0.0
 11
0.0
 21
1.7373486777
 31
0.0
  0
LINE
  5
1B0
330
170
100
AcDbEntity
  8
0
  6
Continuous
 62
   179
370
    25
100
AcDbLine
 10
4.0552806197
 20
1.564999992
 30
0.0
 11
0.0
 21
1.564999992
 31
0.0
  0
LINE
  5
1B1
330
170
100
AcDbEntity
  8
0
  6
Continuous
 62
   179
370
    25
100
AcDbLine
 10
0.0
 20
1.564999992
 30
0.0
 11
0.0
 21
1.7223486643
 31
0.0
  0
LINE
  5
1B2
330
170
100
AcDbEntity
  8
0
  6
Continuous
 62
   179
370
    25
100
AcDbLine
 10
4.0573491825
 20
1.549999997
 30
0.0
 11
0.0
 21
1.549999997
 31
0.0
  0
LINE
  5
1B3
330
170
100
AcDbEntity
  8
0
  6
Continuous
 62
   179
370
    25
100
AcDbLine
 10
0.0
 20
1.549999997
 30
0.0
 11
0.0
 21
1.564999992
 31
0.0
  0
LINE
  5
1B4
330
170
100
AcDbEntity
  8
0
  6
Continuous
 62
   179
370
    25
100
AcDbLine
 10
4.1283338558
 20
1.035000008
 30
0.0
 11
0.0
 21
1.035000008
 31
0.0
  0
LINE
  5
1B5
330
170
100
AcDbEntity
  8
0
  6
Continuous
 62
   179
370
    25
100
AcDbLine
 10
4.1500637381
 20
0.8773486558
 30
0.0
 11
0.0
 21
0.8773486558
 31
0.0
  0
LINE
  5
1B6
330
170
100
AcDbEntity
  8
0
  6
Continuous
 62
   179
370
    25
100
AcDbLine
 10
0.0
 20
0.8773486558
 30
0.0
 11
0.0
 21
1.035000008
 31
0.0
  0
LINE
  5
1B7
330
170
100
AcDbEntity
  8
0
  6
Continuous
 62
   179
370
    25
100
AcDbLine
 10
4.1521323009
 20
0.8623486791
 30
0.0
 11
0.0
 21
0.8623486791
 31
0.0
  0
LINE
  5
1B8
330
170
100
AcDbEntity
  8
0
  6
Continuous
 62
   179
370
    25
100
AcDbLine
 10
0.0
 20
0.8623486791
 30
0.0
 11
0.0
 21
0.8773486558
 31
0.0
  0
LINE
  5
1B9
330
170
100
AcDbEntity
  8
0
  6
Continuous
 62
   179
370
    25
100
AcDbLine
 10
4.1262664664
 20
1.050000003
 30
0.0
 11
0.0
 21
1.050000003
 31
0.0
  0
LINE
  5
1BA
330
170
100
AcDbEntity
  8
0
  6
Continuous
 62
   179
370
    25
100
AcDbLine
 10
0.0
 20
1.035000008
 30
0.0
 11
0.0
 21
1.050000003
 31
0.0
  0
LINE
  5
1BB
330
170
100
AcDbEntity
  8
0
  6
Continuous
 62
   179
370
    25
100
AcDbLine
 10
4.1247540572
 20
1.0609717529
 30
0.0
 11
0.0
 21
1.0609717529
 31
0.0
  0
LINE
  5
1BC
330
170
100
AcDbEntity
  8
0
  6
Continuous
 62
   179
370
    25
100
AcDbLine
 10
0.0
 20
1.050000003
 30
0.0
 11
0.0
 21
1.0609021787
 31
0.0
  0
LINE
  5
1BD
330
170
100
AcDbEntity
  8
0
  6
Continuous
 62
   179
370
    25
100
AcDbLine
 10
4.0579170693
 20
1.5458804346
 30
0.0
 11
0.0
 21
1.5458804346
 31
0.0
  0
LINE
  5
1BE
330
170
100
AcDbEntity
  8
0
  6
Continuous
 62
   179
370
    25
100
AcDbLine
 10
0.0
 20
1.5458804346
 30
0.0
 11
0.0
 21
1.549999997
 31
0.0
  0
LINE
  5
1BF
330
170
100
AcDbEntity
  8
0
  6
Continuous
 62
   179
370
    25
100
AcDbLine
 10
4.0588346053
 20
1.5392200482
 30
0.0
 11
0.0
 21
1.5392200482
 31
0.0
  0
LINE
  5
1C0
330
170
100
AcDbEntity
  8
0
  6
Continuous
 62
   179
370
    25
100
AcDbLine
 10
0.0
 20
1.5392200482
 30
0.0
 11
0.0
 21
1.5458804346
 31
0.0
  0
LINE
  5
1C1
330
170
100
AcDbEntity
  8
0
  6
Continuous
 62
   179
370
    25
100
AcDbLine
 10
0.0
 20
1.0610415655
 30
0.0
 11
0.0
 21
1.0896302169
 31
0.0
  0
LINE
  5
1C2
330
170
100
AcDbEntity
  8
0
  6
Continuous
 62
   179
370
    25
100
AcDbLine
 10
4.0385596395
 20
0.3863137416
 30
0.0
 11
0.0
 21
0.3863137416
 31
0.0
  0
LINE
  5
1C3
330
170
100
AcDbEntity
  8
0
  6
Continuous
 62
   179
370
    25
100
AcDbLine
 10
4.0401189815
 20
0.3749977324
 30
0.0
 11
0.0
 21
0.3749977324
 31
0.0
  0
LINE
  5
1C4
330
170
100
AcDbEntity
  8
0
  6
Continuous
 62
   179
370
    25
100
AcDbLine
 10
0.0
 20
0.3749977324
 30
0.0
 11
0.0
 21
0.3863137416
 31
0.0
  0
LINE
  5
1C5
330
170
100
AcDbEntity
  8
0
  6
Continuous
 62
   179
370
    25
100
AcDbLine
 10
4.1281214849
 20
1.9863137516
 30
0.0
 11
0.0
 21
1.9863137516
 31
0.0
  0
LINE
  5
1C6
330
170
100
AcDbEntity
  8
0
  6
Continuous
 62
   179
370
    25
100
AcDbLine
 10
4.116805989
 20
1.9749977424
 30
0.0
 11
0.0
 21
1.9749977424
 31
0.0
  0
LINE
  5
1C7
330
170
100
AcDbEntity
  8
0
  6
Continuous
 62
   179
370
    25
100
AcDbLine
 10
0.0
 20
1.9749977424
 30
0.0
 11
0.0
 21
1.9863137516
 31
0.0
  0
LINE
  5
1C8
330
170
100
AcDbEntity
  8
0
  6
Continuous
 62
   179
370
    25
100
AcDbLine
 10
4.1090374387
 20
2.474999973
 30
0.0
 11
0.0
 21
2.474999973
 31
0.0
  0
LINE
  5
1C9
330
170
100
AcDbEntity
  8
0
  6
Continuous
 62
   179
370
    25
100
AcDbLine
 10
4.1111458944
 20
2.4597000297
 30
0.0
 11
0.0
 21
2.4597000297
 31
0.0
  0
LINE
  5
1CA
330
170
100
AcDbEntity
  8
0
  6
Continuous
 62
   179
370
    25
100
AcDbLine
 10
0.0
 20
2.4597000297
 30
0.0
 11
0.0
 21
2.474999973
 31
0.0
  0
LINE
  5
1CB
330
170
100
AcDbEntity
  8
0
  6
Continuous
 62
   179
370
    25
100
AcDbLine
 10
4.0668049666
 20
0.6249977843
 30
0.0
 11
0.0
 21
0.6249977843
 31
0.0
  0
LINE
  5
1CC
330
170
100
AcDbEntity
  8
0
  6
Continuous
 62
   179
370
    25
100
AcDbLine
 10
4.0525233182
 20
0.6107157693
 30
0.0
 11
0.0
 21
0.6107157693
 31
0.0
  0
LINE
  5
1CD
330
170
100
AcDbEntity
  8
0
  6
Continuous
 62
   179
370
    25
100
AcDbLine
 10
0.0
 20
0.6107157693
 30
0.0
 11
0.0
 21
0.6249977843
 31
0.0
  0
LINE
  5
1CE
330
170
100
AcDbEntity
  8
0
  6
Continuous
 62
   179
370
    25
100
AcDbLine
 10
0.0
 20
1.7389217329
 30
0.0
 11
0.0
 21
1.9749977424
 31
0.0
  0
LINE
  5
1CF
330
170
100
AcDbEntity
  8
0
  6
Continuous
 62
   179
370
    25
100
AcDbLine
 10
4.1434966673
 20
2.2249977943
 30
0.0
 11
0.0
 21
2.2249977943
 31
0.0
  0
LINE
  5
1D0
330
170
100
AcDbEntity
  8
0
  6
Continuous
 62
   179
370
    25
100
AcDbLine
 10
0.0
 20
2.2249977943
 30
0.0
 11
0.0
 21
2.4597000297
 31
0.0
  0
LINE
  5
1D1
330
170
100
AcDbEntity
  8
0
  6
Continuous
 62
   179
370
    25
100
AcDbLine
 10
4.1454654979
 20
2.210715706
 30
0.0
 11
0.0
 21
2.210715706
 31
0.0
  0
LINE
  5
1D2
330
170
100
AcDbEntity
  8
0
  6
Continuous
 62
   179
370
    25
100
AcDbLine
 10
0.0
 20
2.210715706
 30
0.0
 11
0.0
 21
2.2249977943
 31
0.0
  0
LINE
  5
1D3
330
170
100
AcDbEntity
  8
0
  6
Continuous
 62
   179
370
    25
100
AcDbLine
 10
0.0
 20
1.0965203723
 30
0.0
 11
0.0
 21
1.5032649469
 31
0.0
  0
LINE
  5
1D4
330
170
100
AcDbEntity
  8
0
  6
Continuous
 62
   179
370
    25
100
AcDbLine
 10
4.0724697545
 20
0.1402999703
 30
0.0
 11
0.0
 21
0.1402999703
 31
0.0
  0
LINE
  5
1D5
330
170
100
AcDbEntity
  8
0
  6
Continuous
 62
   179
370
    25
100
AcDbLine
 10
0.0
 20
0.1402999703
 30
0.0
 11
0.0
 21
0.3749977324
 31
0.0
  0
LINE
  5
1D6
330
170
100
AcDbEntity
  8
0
  6
Continuous
 62
   179
370
    25
100
AcDbLine
 10
4.0745782101
 20
0.125000027
 30
0.0
 11
0.0
 21
0.125000027
 31
0.0
  0
LINE
  5
1D7
330
170
100
AcDbEntity
  8
0
  6
Continuous
 62
   179
370
    25
100
AcDbLine
 10
0.0
 20
0.125000027
 30
0.0
 11
0.0
 21
0.1402999703
 31
0.0
  0
LINE
  5
1D8
330
170
100
AcDbEntity
  8
0
  6
Continuous
 62
   179
370
    25
100
AcDbLine
 10
0.0
 20
0.6249977843
 30
0.0
 11
0.0
 21
0.8607755873
 31
0.0
  0
LINE
  5
1D9
330
170
100
AcDbEntity
  8
0
  6
Continuous
 62
   179
370
    25
100
AcDbLine
 10
4.0373710666
 20
0.3949410887
 30
0.0
 11
0.0
 21
0.3949410887
 31
0.0
  0
LINE
  5
1DA
330
170
100
AcDbEntity
  8
0
  6
Continuous
 62
   179
370
    25
100
AcDbLine
 10
0.0
 20
0.3863137416
 30
0.0
 11
0.0
 21
0.3949410887
 31
0.0
  0
LINE
  5
1DB
330
170
100
AcDbEntity
  8
0
  6
Continuous
 62
   179
370
    25
100
AcDbLine
 10
4.1367489053
 20
1.9949410986
 30
0.0
 11
0.0
 21
1.9949410986
 31
0.0
  0
LINE
  5
1DC
330
170
100
AcDbEntity
  8
0
  6
Continuous
 62
   179
370
    25
100
AcDbLine
 10
0.0
 20
1.9863137516
 30
0.0
 11
0.0
 21
1.9949410986
 31
0.0
  0
LINE
  5
1DD
330
170
100
AcDbEntity
  8
0
  6
Continuous
 62
   179
370
    25
100
AcDbLine
 10
4.1462445822
 20
2.2050589113
 30
0.0
 11
0.0
 21
2.2050589113
 31
0.0
  0
LINE
  5
1DE
330
170
100
AcDbEntity
  8
0
  6
Continuous
 62
   179
370
    25
100
AcDbLine
 10
0.0
 20
2.2050589113
 30
0.0
 11
0.0
 21
2.210715706
 31
0.0
  0
LINE
  5
1DF
330
170
100
AcDbEntity
  8
0
  6
Continuous
 62
   179
370
    25
100
AcDbLine
 10
4.0468667436
 20
0.6050589014
 30
0.0
 11
0.0
 21
0.6050589014
 31
0.0
  0
LINE
  5
1E0
330
170
100
AcDbEntity
  8
0
  6
Continuous
 62
   179
370
    25
100
AcDbLine
 10
0.0
 20
0.6050589014
 30
0.0
 11
0.0
 21
0.6107157693
 31
0.0
  0
LINE
  5
1E1
330
170
100
AcDbEntity
  8
0
  6
Continuous
 62
   179
370
    25
100
AcDbLine
 10
0.0
 20
0.3949410887
 30
0.0
 11
0.0
 21
0.6050589014
 31
0.0
  0
LINE
  5
1E2
330
170
100
AcDbEntity
  8
0
  6
Continuous
 62
   179
370
    25
100
AcDbLine
 10
0.0
 20
1.9949410986
 30
0.0
 11
0.0
 21
2.2050589113
 31
0.0
  0
LINE
  5
1E3
330
170
100
AcDbEntity
  8
0
  6
Continuous
 62
     7
370
    18
100
AcDbLine
 10
0.0
 20
3.1049212598
 30
0.0
 11
0.13
 21
3.0849212598
 31
0.0
  0
LINE
  5
1E4
330
170
100
AcDbEntity
  8
0
  6
Continuous
 62
     7
370
    18
100
AcDbLine
 10
0.13
 20
3.0849212598
 30
0.0
 11
0.13
 21
3.1249212598
 31
0.0
  0
LINE
  5
1E5
330
170
100
AcDbEntity
  8
0
  6
Continuous
 62
     7
370
    18
100
AcDbLine
 10
0.13
 20
3.1249212598
 30
0.0
 11
0.0
 21
3.1049212598
 31
0.0
  0
LINE
  5
1E6
330
170
100
AcDbEntity
  8
0
  6
Continuous
 62
     7
370
    18
100
AcDbLine
 10
8.3182383938
 20
3.1049212598
 30
0.0
 11
8.1882383938
 21
3.1249212598
 31
0.0
  0
LINE
  5
1E7
330
170
100
AcDbEntity
  8
0
  6
Continuous
 62
     7
370
    18
100
AcDbLine
 10
8.1882383938
 20
3.1249212598
 30
0.0
 11
8.1882383938
 21
3.0849212598
 31
0.0
  0
LINE
  5
1E8
330
170
100
AcDbEntity
  8
0
  6
Continuous
 62
     7
370
    18
100
AcDbLine
 10
8.1882383938
 20
3.0849212598
 30
0.0
 11
8.3182383938
 21
3.1049212598
 31
0.0
  0
LINE
  5
1E9
330
170
100
AcDbEntity
  8
0
  6
Continuous
 62
     7
370
    18
100
AcDbLine
 10
0.0
 20
2.575
 30
0.0
 11
0.0
 21
3.1442913386
 31
0.0
  0
LINE
  5
1EA
330
170
100
AcDbEntity
  8
0
  6
Continuous
 62
     7
370
    18
100
AcDbLine
 10
8.3182383938
 20
2.575
 30
0.0
 11
8.3182383938
 21
3.1442913386
 31
0.0
  0
LINE
  5
1EB
330
170
100
AcDbEntity
  8
0
  6
Continuous
 62
     7
370
    18
100
AcDbLine
 10
0.0
 20
3.1049212598
 30
0.0
 11
8.3182383938
 21
3.1049212598
 31
0.0
  0
LINE
  5
1EC
330
170
100
AcDbEntity
  8
0
  6
Continuous
 62
     7
370
    18
100
AcDbLine
 10
8.8668538204
 20
2.475
 30
0.0
 11
8.8468538204
 21
2.345
 31
0.0
  0
LINE
  5
1ED
330
170
100
AcDbEntity
  8
0
  6
Continuous
 62
     7
370
    18
100
AcDbLine
 10
8.8468538204
 20
2.345
 30
0.0
 11
8.8868538204
 21
2.345
 31
0.0
  0
LINE
  5
1EE
330
170
100
AcDbEntity
  8
0
  6
Continuous
 62
     7
370
    18
100
AcDbLine
 10
8.8868538204
 20
2.345
 30
0.0
 11
8.8668538204
 21
2.475
 31
0.0
  0
LINE
  5
1EF
330
170
100
AcDbEntity
  8
0
  6
Continuous
 62
     7
370
    18
100
AcDbLine
 10
8.8668538204
 20
0.125
 30
0.0
 11
8.8868538204
 21
0.255
 31
0.0
  0
LINE
  5
1F0
330
170
100
AcDbEntity
  8
0
  6
Continuous
 62
     7
370
    18
100
AcDbLine
 10
8.8868538204
 20
0.255
 30
0.0
 11
8.8468538204
 21
0.255
 31
0.0
  0
LINE
  5
1F1
330
170
100
AcDbEntity
  8
0
  6
Continuous
 62
     7
370
    18
100
AcDbLine
 10
8.8468538204
 20
0.255
 30
0.0
 11
8.8668538204
 21
0.125
 31
0.0
  0
LINE
  5
1F2
330
170
100
AcDbEntity
  8
0
  6
Continuous
 62
     7
370
    18
100
AcDbLine
 10
8.4182383938
 20
2.475
 30
0.0
 11
8.9062238992
 21
2.475
 31
0.0
  0
LINE
  5
1F3
330
170
100
AcDbEntity
  8
0
  6
Continuous
 62
     7
370
    18
100
AcDbLine
 10
8.4182383938
 20
0.125
 30
0.0
 11
8.9062238992
 21
0.125
 31
0.0
  0
LINE
  5
1F4
330
170
100
AcDbEntity
  8
0
  6
Continuous
 62
     7
370
    18
100
AcDbLine
 10
8.8668538204
 20
2.475
 30
0.0
 11
8.8668538204
 21
0.125
 31
0.0
  0
LINE
  5
1F5
330
170
100
AcDbEntity
  8
0
  6
HIDDEN
 62
   179
370
    18
100
AcDbLine
 10
4.0918077029
 20
2.6
 30
0.0
 11
4.1705478604
 21
2.0287401575
 31
0.0
  0
LINE
  5
1F6
330
170
100
AcDbEntity
  8
0
  6
HIDDEN
 62
   179
370
    18
100
AcDbLine
 10
4.1705478604
 20
2.0287401575
 30
0.0
 11
4.0130675454
 21
1.8712598425
 31
0.0
  0
LINE
  5
1F7
330
170
100
AcDbEntity
  8
0
  6
HIDDEN
 62
   179
370
    18
100
AcDbLine
 10
4.0130675454
 20
1.8712598425
 30
0.0
 11
4.1705478604
 21
0.7287401575
 31
0.0
  0
LINE
  5
1F8
330
170
100
AcDbEntity
  8
0
  6
HIDDEN
 62
   179
370
    18
100
AcDbLine
 10
4.1705478604
 20
0.7287401575
 30
0.0
 11
4.0130675454
 21
0.5712598425
 31
0.0
  0
LINE
  5
1F9
330
170
100
AcDbEntity
  8
0
  6
HIDDEN
 62
   179
370
    18
100
AcDbLine
 10
4.0130675454
 20
0.5712598425
 30
0.0
 11
4.0918077029
 21
0.0
 31
0.0
  0
LINE
  5
1FA
330
170
100
AcDbEntity
  8
0
  6
HIDDEN
 62
   179
370
    18
100
AcDbLine
 10
4.2918077029
 20
2.6
 30
0.0
 11
4.3705478604
 21
2.0287401575
 31
0.0
  0
LINE
  5
1FB
330
170
100
AcDbEntity
  8
0
  6
HIDDEN
 62
   179
370
    18
100
AcDbLine
 10
4.3705478604
 20
2.0287401575
 30
0.0
 11
4.2130675454
 21
1.8712598425
 31
0.0
  0
LINE
  5
1FC
330
170
100
AcDbEntity
  8
0
  6
HIDDEN
 62
   179
370
    18
100
AcDbLine
 10
4.2130675454
 20
1.8712598425
 30
0.0
 11
4.3705478604
 21
0.7287401575
 31
0.0
  0
LINE
  5
1FD
330
170
100
AcDbEntity
  8
0
  6
HIDDEN
 62
   179
370
    18
100
AcDbLine
 10
4.3705478604
 20
0.7287401575
 30
0.0
 11
4.2130675454
 21
0.5712598425
 31
0.0
  0
LINE
  5
1FE
330
170
100
AcDbEntity
  8
0
  6
HIDDEN
 62
   179
370
    18
100
AcDbLine
 10
4.2130675454
 20
0.5712598425
 30
0.0
 11
4.2918077029
 21
0.0
 31
0.0
  0
HATCH
  5
1FF
330
170
100
AcDbEntity
  8
0
  6
Continuous
 62
     7
100
AcDbHatch
 10
0.0
 20
0.0
 30
0.0
210
0.0
220
0.0
230
1.0
  2
SOLID
 70
     1
 71
     0
 91
        1
 92
        0
 93
        3
 72
     1
 10
0.1300000000000087
 20
3.084921259841878
 11
0.1300000000000087
 21
3.124921259841878
 72
     1
 10
0.1300000000000087
 20
3.124921259841878
 11
0.0000000000000087
 21
3.104921259841878
 72
     1
 10
0.0000000000000087
 20
3.104921259841878
 11
0.1300000000000087
 21
3.084921259841878
 97
        0
 75
     0
 76
     1
 98
        1
 10
0.0
 20
0.0
  0
HATCH
  5
200
330
170
100
AcDbEntity
  8
0
  6
Continuous
 62
     7
100
AcDbHatch
 10
0.0
 20
0.0
 30
0.0
210
0.0
220
0.0
230
1.0
  2
SOLID
 70
     1
 71
     0
 91
        1
 92
        0
 93
        3
 72
     1
 10
8.188238393763529
 20
3.124921259841878
 11
8.188238393763529
 21
3.084921259841878
 72
     1
 10
8.188238393763529
 20
3.084921259841878
 11
8.31823839376353
 21
3.104921259841878
 72
     1
 10
8.31823839376353
 20
3.104921259841878
 11
8.188238393763529
 21
3.124921259841878
 97
        0
 75
     0
 76
     1
 98
        1
 10
0.0
 20
0.0
  0
HATCH
  5
201
330
170
100
AcDbEntity
  8
0
  6
Continuous
 62
     7
100
AcDbHatch
 10
0.0
 20
0.0
 30
0.0
210
0.0
220
0.0
230
1.0
  2
SOLID
 70
     1
 71
     0
 91
        1
 92
        0
 93
        3
 72
     1
 10
8.84685382042182
 20
2.34499999999936
 11
8.886853820421821
 21
2.34499999999936
 72
     1
 10
8.886853820421821
 20
2.34499999999936
 11
8.866853820421822
 21
2.474999999999361
 72
     1
 10
8.866853820421822
 20
2.474999999999361
 11
8.84685382042182
 21
2.34499999999936
 97
        0
 75
     0
 76
     1
 98
        1
 10
0.0
 20
0.0
  0
HATCH
  5
202
330
170
100
AcDbEntity
  8
0
  6
Continuous
 62
     7
100
AcDbHatch
 10
0.0
 20
0.0
 30
0.0
210
0.0
220
0.0
230
1.0
  2
SOLID
 70
     1
 71
     0
 91
        1
 92
        0
 93
        3
 72
     1
 10
8.886853820421821
 20
0.2549999999999982
 11
8.84685382042182
 21
0.2549999999999982
 72
     1
 10
8.84685382042182
 20
0.2549999999999982
 11
8.866853820421822
 21
0.1249999999999983
 72
     1
 10
8.866853820421822
 20
0.1249999999999983
 11
8.886853820421821
 21
0.2549999999999982
 97
        0
 75
     0
 76
     1
 98
        1
 10
0.0
 20
0.0
  0
MTEXT
  5
203
330
170
100
AcDbEntity
  8
0
  6
Continuous
 62
     7
370
    18
100
AcDbMText
 10
2.9675072226
 20
3.4158081088
 30
0.0
 40
0.1666666667
 41
0.0
 71
     1
 72
     1
  1
LENGTHS UP TO 20'
  7
SLDTEXTSTYLE1
 73
     1
 44
1.0
  0
MTEXT
  5
205
330
170
100
AcDbEntity
  8
0
  6
Continuous
 62
     7
370
    18
100
AcDbMText
 10
8.9442272839
 20
1.3698361922
 30
0.0
 40
0.1377952756
 41
0.0
 71
     1
 72
     1
  1
2 - 3/8"
  7
SLDTEXTSTYLE3
 73
     1
 44
1.0
  0
ENDBLK
  5
172
330
170
100
AcDbEntity
  8
0
100
AcDbBlockEnd
  0
BLOCK
  5
207
330
206
100
AcDbEntity
  8
0
100
AcDbBlockBegin
  2
Block14_
 70
     0
 10
0.0
 20
0.0
 30
0.0
  3
Block14_
  1

  0
LINE
  5
209
330
206
100
AcDbEntity
  8
0
  6
Continuous
 62
   179
370
    25
100
AcDbLine
 10
8.6685914918
 20
0.6076551787
 30
0.0
 11
4.3284852957
 21
0.6076551787
 31
0.0
  0
LINE
  5
20A
330
206
100
AcDbEntity
  8
0
  6
Continuous
 62
   179
370
    25
100
AcDbLine
 10
4.3284852957
 20
0.8174205188
 30
0.0
 11
8.6686061583
 21
0.8174205188
 31
0.0
  0
LINE
  5
20B
330
206
100
AcDbEntity
  8
0
  6
Continuous
 62
   179
370
    25
100
AcDbLine
 10
8.7110322282
 20
0.9236743322
 30
0.0
 11
4.3284852957
 21
0.9236743322
 31
0.0
  0
LINE
  5
20C
330
206
100
AcDbEntity
  8
0
  6
Continuous
 62
   179
370
    25
100
AcDbLine
 10
8.7110322282
 20
0.844999996
 30
0.0
 11
8.7110322282
 21
0.9236743322
 31
0.0
  0
LINE
  5
20D
330
206
100
AcDbEntity
  8
0
  6
Continuous
 62
   179
370
    25
100
AcDbLine
 10
8.7110322282
 20
0.844999996
 30
0.0
 11
4.3284852957
 21
0.844999996
 31
0.0
  0
LINE
  5
20E
330
206
100
AcDbEntity
  8
0
  6
Continuous
 62
   179
370
    25
100
AcDbLine
 10
8.7057288228
 20
0.8374999985
 30
0.0
 11
4.3284852957
 21
0.8374999985
 31
0.0
  0
LINE
  5
20F
330
206
100
AcDbEntity
  8
0
  6
Continuous
 62
   179
370
    25
100
AcDbLine
 10
8.7110322282
 20
0.580000004
 30
0.0
 11
4.3284852957
 21
0.580000004
 31
0.0
  0
LINE
  5
210
330
206
100
AcDbEntity
  8
0
  6
Continuous
 62
   179
370
    25
100
AcDbLine
 10
8.7110322282
 20
0.5011743279
 30
0.0
 11
8.7110322282
 21
0.580000004
 31
0.0
  0
LINE
  5
211
330
206
100
AcDbEntity
  8
0
  6
Continuous
 62
   179
370
    25
100
AcDbLine
 10
8.7110322282
 20
0.5011743279
 30
0.0
 11
4.3284852957
 21
0.5011743279
 31
0.0
  0
LINE
  5
212
330
206
100
AcDbEntity
  8
0
  6
Continuous
 62
   179
370
    25
100
AcDbLine
 10
8.7057288228
 20
0.9311743389
 30
0.0
 11
4.3284852957
 21
0.9311743389
 31
0.0
  0
LINE
  5
213
330
206
100
AcDbEntity
  8
0
  6
Continuous
 62
   179
370
    25
100
AcDbLine
 10
8.7057288228
 20
0.5875000015
 30
0.0
 11
4.3284852957
 21
0.5875000015
 31
0.0
  0
LINE
  5
214
330
206
100
AcDbEntity
  8
0
  6
Continuous
 62
   179
370
    25
100
AcDbLine
 10
8.7057288228
 20
0.4936743396
 30
0.0
 11
4.3284852957
 21
0.4936743396
 31
0.0
  0
LINE
  5
215
330
206
100
AcDbEntity
  8
0
  6
Continuous
 62
   179
370
    25
100
AcDbLine
 10
8.6823087733
 20
0.5929858765
 30
0.0
 11
4.3284852957
 21
0.5929858765
 31
0.0
  0
LINE
  5
216
330
206
100
AcDbEntity
  8
0
  6
Continuous
 62
   179
370
    25
100
AcDbLine
 10
8.6837108905
 20
0.8354402173
 30
0.0
 11
4.3284852957
 21
0.8354402173
 31
0.0
  0
LINE
  5
217
330
206
100
AcDbEntity
  8
0
  6
Continuous
 62
   179
370
    25
100
AcDbLine
 10
8.6823128799
 20
0.8321100241
 30
0.0
 11
4.3284852957
 21
0.8321100241
 31
0.0
  0
LINE
  5
218
330
206
100
AcDbEntity
  8
0
  6
Continuous
 62
   179
370
    25
100
AcDbLine
 10
8.3381441625
 20
0.2556568708
 30
0.0
 11
4.3284852957
 21
0.2556568708
 31
0.0
  0
LINE
  5
219
330
206
100
AcDbEntity
  8
0
  6
Continuous
 62
   179
370
    25
100
AcDbLine
 10
8.33980089
 20
0.2499988662
 30
0.0
 11
4.3284852957
 21
0.2499988662
 31
0.0
  0
LINE
  5
21A
330
206
100
AcDbEntity
  8
0
  6
Continuous
 62
   179
370
    25
100
AcDbLine
 10
8.3381441625
 20
1.0556568758
 30
0.0
 11
4.3284852957
 21
1.0556568758
 31
0.0
  0
LINE
  5
21B
330
206
100
AcDbEntity
  8
0
  6
Continuous
 62
   179
370
    25
100
AcDbLine
 10
8.33980089
 20
1.0499988712
 30
0.0
 11
4.3284852957
 21
1.0499988712
 31
0.0
  0
LINE
  5
21C
330
206
100
AcDbEntity
  8
0
  6
Continuous
 62
   179
370
    25
100
AcDbLine
 10
8.3343912992
 20
1.2999999865
 30
0.0
 11
4.3284852957
 21
1.2999999865
 31
0.0
  0
LINE
  5
21D
330
206
100
AcDbEntity
  8
0
  6
Continuous
 62
   179
370
    25
100
AcDbLine
 10
8.33980089
 20
1.2923500149
 30
0.0
 11
4.3284852957
 21
1.2923500149
 31
0.0
  0
LINE
  5
21E
330
206
100
AcDbEntity
  8
0
  6
Continuous
 62
   179
370
    25
100
AcDbLine
 10
8.33980089
 20
0.1326499851
 30
0.0
 11
4.3284852957
 21
0.1326499851
 31
0.0
  0
LINE
  5
21F
330
206
100
AcDbEntity
  8
0
  6
Continuous
 62
   179
370
    25
100
AcDbLine
 10
8.3343912992
 20
0.1250000135
 30
0.0
 11
4.3284852957
 21
0.1250000135
 31
0.0
  0
LINE
  5
220
330
206
100
AcDbEntity
  8
0
  6
Continuous
 62
   179
370
    25
100
AcDbLine
 10
8.33980089
 20
0.3749988922
 30
0.0
 11
4.3284852957
 21
0.3749988922
 31
0.0
  0
LINE
  5
221
330
206
100
AcDbEntity
  8
0
  6
Continuous
 62
   179
370
    25
100
AcDbLine
 10
8.3370940413
 20
0.3678578847
 30
0.0
 11
4.3284852957
 21
0.3678578847
 31
0.0
  0
LINE
  5
222
330
206
100
AcDbEntity
  8
0
  6
Continuous
 62
   179
370
    25
100
AcDbLine
 10
8.33980089
 20
0.9311743389
 30
0.0
 11
8.33980089
 21
1.0499988712
 31
0.0
  0
LINE
  5
223
330
206
100
AcDbEntity
  8
0
  6
Continuous
 62
   179
370
    25
100
AcDbLine
 10
8.33980089
 20
1.1749988972
 30
0.0
 11
8.33980089
 21
1.2923500149
 31
0.0
  0
LINE
  5
224
330
206
100
AcDbEntity
  8
0
  6
Continuous
 62
   179
370
    25
100
AcDbLine
 10
8.33980089
 20
1.1749988972
 30
0.0
 11
4.3284852957
 21
1.1749988972
 31
0.0
  0
LINE
  5
225
330
206
100
AcDbEntity
  8
0
  6
Continuous
 62
   179
370
    25
100
AcDbLine
 10
8.3370940413
 20
1.167857853
 30
0.0
 11
4.3284852957
 21
1.167857853
 31
0.0
  0
LINE
  5
226
330
206
100
AcDbEntity
  8
0
  6
Continuous
 62
   179
370
    25
100
AcDbLine
 10
8.33980089
 20
0.6076551787
 30
0.0
 11
8.33980089
 21
0.8174205188
 31
0.0
  0
LINE
  5
227
330
206
100
AcDbEntity
  8
0
  6
Continuous
 62
   179
370
    25
100
AcDbLine
 10
8.33980089
 20
0.1326499851
 30
0.0
 11
8.33980089
 21
0.2499988662
 31
0.0
  0
LINE
  5
228
330
206
100
AcDbEntity
  8
0
  6
Continuous
 62
   179
370
    25
100
AcDbLine
 10
8.33980089
 20
0.3749988922
 30
0.0
 11
8.33980089
 21
0.4936743396
 31
0.0
  0
LINE
  5
229
330
206
100
AcDbEntity
  8
0
  6
Continuous
 62
   179
370
    25
100
AcDbLine
 10
8.3362650909
 20
0.2599705443
 30
0.0
 11
4.3284852957
 21
0.2599705443
 31
0.0
  0
LINE
  5
22A
330
206
100
AcDbEntity
  8
0
  6
Continuous
 62
   179
370
    25
100
AcDbLine
 10
8.3362650909
 20
1.0599705493
 30
0.0
 11
4.3284852957
 21
1.0599705493
 31
0.0
  0
LINE
  5
22B
330
206
100
AcDbEntity
  8
0
  6
Continuous
 62
   179
370
    25
100
AcDbLine
 10
8.3362650909
 20
1.1650294557
 30
0.0
 11
4.3284852957
 21
1.1650294557
 31
0.0
  0
LINE
  5
22C
330
206
100
AcDbEntity
  8
0
  6
Continuous
 62
   179
370
    25
100
AcDbLine
 10
8.3362650909
 20
0.3650294507
 30
0.0
 11
4.3284852957
 21
0.3650294507
 31
0.0
  0
LINE
  5
22D
330
206
100
AcDbEntity
  8
0
  6
Continuous
 62
   179
370
    25
100
AcDbLine
 10
8.3362650909
 20
0.2599705443
 30
0.0
 11
8.3362650909
 21
0.3650294507
 31
0.0
  0
LINE
  5
22E
330
206
100
AcDbEntity
  8
0
  6
Continuous
 62
   179
370
    25
100
AcDbLine
 10
8.3362650909
 20
1.0599705493
 30
0.0
 11
8.3362650909
 21
1.1650294557
 31
0.0
  0
LINE
  5
22F
330
206
100
AcDbEntity
  8
0
  6
Continuous
 62
   179
370
    25
100
AcDbLine
 10
4.3281853404
 20
0.6076551787
 30
0.0
 11
0.3464684242
 21
0.6076551787
 31
0.0
  0
LINE
  5
230
330
206
100
AcDbEntity
  8
0
  6
Continuous
 62
   179
370
    25
100
AcDbLine
 10
0.3464830907
 20
0.8174205188
 30
0.0
 11
4.3281853404
 21
0.8174205188
 31
0.0
  0
LINE
  5
231
330
206
100
AcDbEntity
  8
0
  6
Continuous
 62
   179
370
    25
100
AcDbLine
 10
0.3836057552
 20
0.5875000015
 30
0.0
 11
0.3652790869
 21
0.5875000015
 31
0.0
  0
LINE
  5
232
330
206
100
AcDbEntity
  8
0
  6
Continuous
 62
   179
370
    25
100
AcDbLine
 10
0.3889091606
 20
0.5011743279
 30
0.0
 11
0.3889091606
 21
0.580000004
 31
0.0
  0
LINE
  5
233
330
206
100
AcDbEntity
  8
0
  6
Continuous
 62
   179
370
    25
100
AcDbLine
 10
0.3765347436
 20
0.4936743396
 30
0.0
 11
0.3836057552
 21
0.4936743396
 31
0.0
  0
LINE
  5
234
330
206
100
AcDbEntity
  8
0
  6
Continuous
 62
   179
370
    25
100
AcDbLine
 10
0.3712313382
 20
0.5550000061
 30
0.0
 11
0.3712313382
 21
0.5011743279
 31
0.0
  0
LINE
  5
235
330
206
100
AcDbEntity
  8
0
  6
Continuous
 62
   179
370
    25
100
AcDbLine
 10
0.0229812279
 20
0.5625000036
 30
0.0
 11
0.3659279328
 21
0.5625000036
 31
0.0
  0
LINE
  5
236
330
206
100
AcDbEntity
  8
0
  6
Continuous
 62
   179
370
    25
100
AcDbLine
 10
0.0176778225
 20
0.3749988922
 30
0.0
 11
0.0176778225
 21
0.5550000061
 31
0.0
  0
LINE
  5
237
330
206
100
AcDbEntity
  8
0
  6
Continuous
 62
   179
370
    25
100
AcDbLine
 10
0.01414261
 20
0.2599705443
 30
0.0
 11
0.01414261
 21
0.3650294507
 31
0.0
  0
LINE
  5
238
330
206
100
AcDbEntity
  8
0
  6
Continuous
 62
   179
370
    25
100
AcDbLine
 10
0.0176778225
 20
0.1326499851
 30
0.0
 11
0.0176778225
 21
0.2499988662
 31
0.0
  0
LINE
  5
239
330
206
100
AcDbEntity
  8
0
  6
Continuous
 62
   179
370
    25
100
AcDbLine
 10
0.0054095908
 20
0.1250000135
 30
0.0
 11
0.0122688183
 21
0.1250000135
 31
0.0
  0
LINE
  5
23A
330
206
100
AcDbEntity
  8
0
  6
Continuous
 62
   179
370
    25
100
AcDbLine
 10
0.0
 20
0.7035780495
 30
0.0
 11
0.0
 21
0.1326499851
 31
0.0
  0
LINE
  5
23B
330
206
100
AcDbEntity
  8
0
  6
Continuous
 62
   179
370
    25
100
AcDbLine
 10
0.0
 20
1.2923500149
 30
0.0
 11
0.0
 21
0.7240719511
 31
0.0
  0
LINE
  5
23C
330
206
100
AcDbEntity
  8
0
  6
Continuous
 62
   179
370
    25
100
AcDbLine
 10
0.0122688183
 20
1.2999999865
 30
0.0
 11
0.0054095908
 21
1.2999999865
 31
0.0
  0
LINE
  5
23D
330
206
100
AcDbEntity
  8
0
  6
Continuous
 62
   179
370
    25
100
AcDbLine
 10
0.0176778225
 20
1.1749988972
 30
0.0
 11
0.0176778225
 21
1.2923500149
 31
0.0
  0
LINE
  5
23E
330
206
100
AcDbEntity
  8
0
  6
Continuous
 62
   179
370
    25
100
AcDbLine
 10
0.01414261
 20
1.0599705493
 30
0.0
 11
0.01414261
 21
1.1650294557
 31
0.0
  0
LINE
  5
23F
330
206
100
AcDbEntity
  8
0
  6
Continuous
 62
   179
370
    25
100
AcDbLine
 10
0.0176778225
 20
0.8699999939
 30
0.0
 11
0.0176778225
 21
1.0499988712
 31
0.0
  0
LINE
  5
240
330
206
100
AcDbEntity
  8
0
  6
Continuous
 62
   179
370
    25
100
AcDbLine
 10
0.3659279328
 20
0.8624999964
 30
0.0
 11
0.0229812279
 21
0.8624999964
 31
0.0
  0
LINE
  5
241
330
206
100
AcDbEntity
  8
0
  6
Continuous
 62
   179
370
    25
100
AcDbLine
 10
0.3712313382
 20
0.9236743322
 30
0.0
 11
0.3712313382
 21
0.8699999939
 31
0.0
  0
LINE
  5
242
330
206
100
AcDbEntity
  8
0
  6
Continuous
 62
   179
370
    25
100
AcDbLine
 10
0.3836057552
 20
0.9311743389
 30
0.0
 11
0.3765347436
 21
0.9311743389
 31
0.0
  0
LINE
  5
243
330
206
100
AcDbEntity
  8
0
  6
Continuous
 62
   179
370
    25
100
AcDbLine
 10
0.3889091606
 20
0.844999996
 30
0.0
 11
0.3889091606
 21
0.9236743322
 31
0.0
  0
LINE
  5
244
330
206
100
AcDbEntity
  8
0
  6
Continuous
 62
   179
370
    25
100
AcDbLine
 10
0.3652386074
 20
0.8374999985
 30
0.0
 11
0.3836057552
 21
0.8374999985
 31
0.0
  0
LINE
  5
245
330
206
100
AcDbEntity
  8
0
  6
Continuous
 62
   179
370
    25
100
AcDbLine
 10
0.0229812279
 20
0.8374999985
 30
0.0
 11
0.3277129076
 21
0.8374999985
 31
0.0
  0
LINE
  5
246
330
206
100
AcDbEntity
  8
0
  6
Continuous
 62
   179
370
    25
100
AcDbLine
 10
0.0176778225
 20
0.594999999
 30
0.0
 11
0.0176778225
 21
0.830000001
 31
0.0
  0
LINE
  5
247
330
206
100
AcDbEntity
  8
0
  6
Continuous
 62
   179
370
    25
100
AcDbLine
 10
0.327672428
 20
0.5875000015
 30
0.0
 11
0.0229812279
 21
0.5875000015
 31
0.0
  0
LINE
  5
248
330
206
100
AcDbEntity
  8
0
  6
Continuous
 62
   179
370
    25
100
AcDbLine
 10
4.3281853404
 20
0.9236743322
 30
0.0
 11
0.3889091606
 21
0.9236743322
 31
0.0
  0
LINE
  5
249
330
206
100
AcDbEntity
  8
0
  6
Continuous
 62
   179
370
    25
100
AcDbLine
 10
4.3281853404
 20
0.844999996
 30
0.0
 11
0.3889091606
 21
0.844999996
 31
0.0
  0
LINE
  5
24A
330
206
100
AcDbEntity
  8
0
  6
Continuous
 62
   179
370
    25
100
AcDbLine
 10
4.3281853404
 20
0.8374999985
 30
0.0
 11
0.3836057552
 21
0.8374999985
 31
0.0
  0
LINE
  5
24B
330
206
100
AcDbEntity
  8
0
  6
Continuous
 62
   179
370
    25
100
AcDbLine
 10
4.3281853404
 20
0.580000004
 30
0.0
 11
0.3889091606
 21
0.580000004
 31
0.0
  0
LINE
  5
24C
330
206
100
AcDbEntity
  8
0
  6
Continuous
 62
   179
370
    25
100
AcDbLine
 10
4.3281853404
 20
0.5011743279
 30
0.0
 11
0.3889091606
 21
0.5011743279
 31
0.0
  0
LINE
  5
24D
330
206
100
AcDbEntity
  8
0
  6
Continuous
 62
   179
370
    25
100
AcDbLine
 10
4.3281853404
 20
0.9311743389
 30
0.0
 11
0.3836057552
 21
0.9311743389
 31
0.0
  0
LINE
  5
24E
330
206
100
AcDbEntity
  8
0
  6
Continuous
 62
   179
370
    25
100
AcDbLine
 10
4.3281853404
 20
0.5875000015
 30
0.0
 11
0.3836057552
 21
0.5875000015
 31
0.0
  0
LINE
  5
24F
330
206
100
AcDbEntity
  8
0
  6
Continuous
 62
   179
370
    25
100
AcDbLine
 10
4.3281853404
 20
0.4936743396
 30
0.0
 11
0.3836057552
 21
0.4936743396
 31
0.0
  0
LINE
  5
250
330
206
100
AcDbEntity
  8
0
  6
Continuous
 62
   179
370
    25
100
AcDbLine
 10
4.3281853404
 20
0.5929858765
 30
0.0
 11
0.3601857058
 21
0.5929858765
 31
0.0
  0
LINE
  5
251
330
206
100
AcDbEntity
  8
0
  6
Continuous
 62
   179
370
    25
100
AcDbLine
 10
4.3281853404
 20
0.8354402173
 30
0.0
 11
0.3615878229
 21
0.8354402173
 31
0.0
  0
LINE
  5
252
330
206
100
AcDbEntity
  8
0
  6
Continuous
 62
   179
370
    25
100
AcDbLine
 10
4.3281853404
 20
0.8321100241
 30
0.0
 11
0.3601898124
 21
0.8321100241
 31
0.0
  0
LINE
  5
253
330
206
100
AcDbEntity
  8
0
  6
Continuous
 62
   179
370
    25
100
AcDbLine
 10
4.3281853404
 20
0.2556568708
 30
0.0
 11
0.0160210949
 21
0.2556568708
 31
0.0
  0
LINE
  5
254
330
206
100
AcDbEntity
  8
0
  6
Continuous
 62
   179
370
    25
100
AcDbLine
 10
4.3281853404
 20
0.2499988662
 30
0.0
 11
0.0176778225
 21
0.2499988662
 31
0.0
  0
LINE
  5
255
330
206
100
AcDbEntity
  8
0
  6
Continuous
 62
   179
370
    25
100
AcDbLine
 10
4.3281853404
 20
1.0556568758
 30
0.0
 11
0.0160210949
 21
1.0556568758
 31
0.0
  0
LINE
  5
256
330
206
100
AcDbEntity
  8
0
  6
Continuous
 62
   179
370
    25
100
AcDbLine
 10
4.3281853404
 20
1.0499988712
 30
0.0
 11
0.0176778225
 21
1.0499988712
 31
0.0
  0
LINE
  5
257
330
206
100
AcDbEntity
  8
0
  6
Continuous
 62
   179
370
    25
100
AcDbLine
 10
4.3281853404
 20
1.2999999865
 30
0.0
 11
0.0122688183
 21
1.2999999865
 31
0.0
  0
LINE
  5
258
330
206
100
AcDbEntity
  8
0
  6
Continuous
 62
   179
370
    25
100
AcDbLine
 10
4.3281853404
 20
1.2923500149
 30
0.0
 11
0.0176778225
 21
1.2923500149
 31
0.0
  0
LINE
  5
259
330
206
100
AcDbEntity
  8
0
  6
Continuous
 62
   179
370
    25
100
AcDbLine
 10
4.3281853404
 20
0.1326499851
 30
0.0
 11
0.0176778225
 21
0.1326499851
 31
0.0
  0
LINE
  5
25A
330
206
100
AcDbEntity
  8
0
  6
Continuous
 62
   179
370
    25
100
AcDbLine
 10
4.3281853404
 20
0.1250000135
 30
0.0
 11
0.0122688183
 21
0.1250000135
 31
0.0
  0
LINE
  5
25B
330
206
100
AcDbEntity
  8
0
  6
Continuous
 62
   179
370
    25
100
AcDbLine
 10
4.3281853404
 20
0.3749988922
 30
0.0
 11
0.0176778225
 21
0.3749988922
 31
0.0
  0
LINE
  5
25C
330
206
100
AcDbEntity
  8
0
  6
Continuous
 62
   179
370
    25
100
AcDbLine
 10
4.3281853404
 20
0.3678578847
 30
0.0
 11
0.0149709737
 21
0.3678578847
 31
0.0
  0
LINE
  5
25D
330
206
100
AcDbEntity
  8
0
  6
Continuous
 62
   179
370
    25
100
AcDbLine
 10
4.3281853404
 20
1.1749988972
 30
0.0
 11
0.0176778225
 21
1.1749988972
 31
0.0
  0
LINE
  5
25E
330
206
100
AcDbEntity
  8
0
  6
Continuous
 62
   179
370
    25
100
AcDbLine
 10
4.3281853404
 20
1.167857853
 30
0.0
 11
0.0149709737
 21
1.167857853
 31
0.0
  0
LINE
  5
25F
330
206
100
AcDbEntity
  8
0
  6
Continuous
 62
   179
370
    25
100
AcDbLine
 10
4.3281853404
 20
0.2599705443
 30
0.0
 11
0.01414261
 21
0.2599705443
 31
0.0
  0
LINE
  5
260
330
206
100
AcDbEntity
  8
0
  6
Continuous
 62
   179
370
    25
100
AcDbLine
 10
4.3281853404
 20
1.0599705493
 30
0.0
 11
0.01414261
 21
1.0599705493
 31
0.0
  0
LINE
  5
261
330
206
100
AcDbEntity
  8
0
  6
Continuous
 62
   179
370
    25
100
AcDbLine
 10
4.3281853404
 20
1.1650294557
 30
0.0
 11
0.01414261
 21
1.1650294557
 31
0.0
  0
LINE
  5
262
330
206
100
AcDbEntity
  8
0
  6
Continuous
 62
   179
370
    25
100
AcDbLine
 10
4.3281853404
 20
0.3650294507
 30
0.0
 11
0.01414261
 21
0.3650294507
 31
0.0
  0
LINE
  5
263
330
206
100
AcDbEntity
  8
0
  6
Continuous
 62
     8
370
    25
100
AcDbLine
 10
0.3712313382
 20
0.5550000061
 30
0.0
 11
0.0176778225
 21
0.5550000061
 31
0.0
  0
LINE
  5
264
330
206
100
AcDbEntity
  8
0
  6
Continuous
 62
     8
370
    25
100
AcDbLine
 10
0.3333982286
 20
0.830000001
 30
0.0
 11
0.0176778225
 21
0.830000001
 31
0.0
  0
LINE
  5
265
330
206
100
AcDbEntity
  8
0
  6
Continuous
 62
     8
370
    25
100
AcDbLine
 10
0.3712313382
 20
0.8699999939
 30
0.0
 11
0.0176778225
 21
0.8699999939
 31
0.0
  0
LINE
  5
266
330
206
100
AcDbEntity
  8
0
  6
Continuous
 62
     8
370
    25
100
AcDbLine
 10
0.3334956141
 20
0.594999999
 30
0.0
 11
0.0176778225
 21
0.594999999
 31
0.0
  0
SPLINE
  5
267
330
206
100
AcDbEntity
  8
0
  6
Continuous
 62
   179
370
    25
100
AcDbSpline
210
0.0
220
0.0
230
1.0
 70
     8
 71
     3
 72
    11
 73
     7
 74
     0
 42
0.000000001
 43
0.00000001
 40
0.0
 40
0.0
 40
0.0
 40
0.0
 40
0.2390382022823604
 40
0.5039122945368479
 40
0.7402218054626776
 40
1.0
 40
1.0
 40
1.0
 40
1.0
 10
8.705728822774352
 20
0.8374999984891919
 30
0.0
 10
8.706536276750915
 20
0.8376646960217904
 30
0.0
 10
8.708238456495318
 20
0.8380118920380091
 30
0.0
 10
8.709873070724166
 20
0.8400833219285216
 30
0.0
 10
8.7108561512016
 20
0.8424511937621284
 30
0.0
 10
8.71097171352824
 20
0.8441240162316006
 30
0.0
 10
8.711032228175627
 20
0.8449999960152466
 30
0.0
  0
SPLINE
  5
268
330
206
100
AcDbEntity
  8
0
  6
Continuous
 62
   179
370
    25
100
AcDbSpline
210
0.0
220
0.0
230
1.0
 70
     8
 71
     3
 72
    11
 73
     7
 74
     0
 42
0.000000001
 43
0.00000001
 40
0.0
 40
0.0
 40
0.0
 40
0.0
 40
0.3257327139490275
 40
0.6127512065777124
 40
0.812271270844364
 40
1.0
 40
1.0
 40
1.0
 40
1.0
 10
8.711032228175627
 20
0.9236743321626019
 30
0.0
 10
8.710937629634328
 20
0.9247749072088004
 30
0.0
 10
8.710759675846335
 20
0.9268452509557084
 30
0.0
 10
8.709422283538585
 20
0.9292928388581535
 30
0.0
 10
8.707673908767852
 20
0.9308738420657733
 30
0.0
 10
8.706363888507045
 20
0.9310762274018436
 30
0.0
 10
8.705728822774352
 20
0.9311743388552179
 30
0.0
  0
SPLINE
  5
269
330
206
100
AcDbEntity
  8
0
  6
Continuous
 62
   179
370
    25
100
AcDbSpline
210
0.0
220
0.0
230
1.0
 70
     8
 71
     3
 72
    11
 73
     7
 74
     0
 42
0.000000001
 43
0.00000001
 40
0.0
 40
0.0
 40
0.0
 40
0.0
 40
0.3257329015507161
 40
0.6127515594841173
 40
0.8122711627243469
 40
0.9999999999999999
 40
0.9999999999999999
 40
0.9999999999999999
 40
0.9999999999999999
 10
8.711032228175627
 20
0.5800000039844345
 30
0.0
 10
8.710937629335461
 20
0.5811005786685796
 30
0.0
 10
8.710759674985253
 20
0.58317092173441
 30
0.0
 10
8.70942228708642
 20
0.5856185120937072
 30
0.0
 10
8.707673905600599
 20
0.5871995036253004
 30
0.0
 10
8.70636388810907
 20
0.587401889601081
 30
0.0
 10
8.705728822774352
 20
0.5875000015104898
 30
0.0
  0
SPLINE
  5
26A
330
206
100
AcDbEntity
  8
0
  6
Continuous
 62
   179
370
    25
100
AcDbSpline
210
0.0
220
0.0
230
1.0
 70
     8
 71
     3
 72
    11
 73
     7
 74
     0
 42
0.000000001
 43
0.00000001
 40
0.0
 40
0.0
 40
0.0
 40
0.0
 40
0.2390379907717011
 40
0.5039121566484046
 40
0.7402217332568752
 40
1.0
 40
1.0
 40
1.0
 40
1.0
 10
8.705728822774352
 20
0.4936743395592093
 30
0.0
 10
8.706536276901645
 20
0.4938390334647233
 30
0.0
 10
8.708238458004168
 20
0.494186222046952
 30
0.0
 10
8.709873070505667
 20
0.4962576544843391
 30
0.0
 10
8.7108561512597
 20
0.4986255254921246
 30
0.0
 10
8.710971713548204
 20
0.5002983480754428
 30
0.0
 10
8.711032228175627
 20
0.5011743279187042
 30
0.0
  0
SPLINE
  5
26B
330
206
100
AcDbEntity
  8
0
  6
Continuous
 62
   179
370
    25
100
AcDbSpline
210
0.0
220
0.0
230
1.0
 70
     8
 71
     3
 72
    11
 73
     7
 74
     0
 42
0.000000001
 43
0.00000001
 40
0.0
 40
0.0
 40
0.0
 40
0.0
 40
0.2455684492052835
 40
0.5109549474016789
 40
0.7436931511426091
 40
1.0
 40
1.0
 40
1.0
 40
1.0
 10
8.687402154485588
 20
0.5875000015104898
 30
0.0
 10
8.686748022579074
 20
0.587622853555295
 30
0.0
 10
8.685386968522792
 20
0.5878784721426784
 30
0.0
 10
8.683894043216563
 20
0.5893065994886335
 30
0.0
 10
8.682835086178798
 20
0.591025129516482
 30
0.0
 10
8.682494377502143
 20
0.5922888026045844
 30
0.0
 10
8.682315813243436
 20
0.5929510893723909
 30
0.0
  0
SPLINE
  5
26C
330
206
100
AcDbEntity
  8
0
  6
Continuous
 62
   179
370
    25
100
AcDbSpline
210
0.0
220
0.0
230
1.0
 70
     8
 71
     3
 72
     9
 73
     5
 74
     0
 42
0.000000001
 43
0.00000001
 40
0.0
 40
0.0
 40
0.0
 40
0.0
 40
0.5792459962417172
 40
1.0
 40
1.0
 40
1.0
 40
1.0
 10
8.683710890460718
 20
0.8354402172839596
 30
0.0
 10
8.684288135190105
 20
0.8360860190535528
 30
0.0
 10
8.685284680238551
 20
0.8372009197585804
 30
0.0
 10
8.686746576322719
 20
0.83741142680612
 30
0.0
 10
8.68736167495321
 20
0.8374999984891919
 30
0.0
  0
SPLINE
  5
26D
330
206
100
AcDbEntity
  8
0
  6
Continuous
 62
   179
370
    25
100
AcDbSpline
210
0.0
220
0.0
230
1.0
 70
     8
 71
     3
 72
     9
 73
     5
 74
     0
 42
0.000000001
 43
0.00000001
 40
0.0
 40
0.0
 40
0.0
 40
0.0
 40
0.5819326786399323
 40
1.0
 40
1.0
 40
1.0
 40
1.0
 10
8.68231287994399
 20
0.832110024087969
 30
0.0
 10
8.682485645635044
 20
0.8327993914916343
 30
0.0
 10
8.6827825282426
 20
0.8339840085942106
 30
0.0
 10
8.68343719548169
 20
0.8350109053203494
 30
0.0
 10
8.683710890460718
 20
0.8354402172839596
 30
0.0
  0
SPLINE
  5
26E
330
206
100
AcDbEntity
  8
0
  6
Continuous
 62
   179
370
    25
100
AcDbSpline
210
0.0
220
0.0
230
1.0
 70
     8
 71
     3
 72
    11
 73
     7
 74
     0
 42
0.000000001
 43
0.00000001
 40
0.0
 40
0.0
 40
0.0
 40
0.0
 40
0.4313840235868895
 40
0.6309522282386228
 40
0.8164276149641911
 40
1.0
 40
1.0
 40
1.0
 40
1.0
 10
8.682301733406087
 20
0.593020782733954
 30
0.0
 10
8.681398763316706
 20
0.5960462948303914
 30
0.0
 10
8.680078058425524
 20
0.6004714786444255
 30
0.0
 10
8.676102919353823
 20
0.6048345685717224
 30
0.0
 10
8.672625645348006
 20
0.6072656746915529
 30
0.0
 10
8.669919042013547
 20
0.6072838608414731
 30
0.0
 10
8.668572718671504
 20
0.6072929070278223
 30
0.0
  0
SPLINE
  5
26F
330
206
100
AcDbEntity
  8
0
  6
Continuous
 62
   179
370
    25
100
AcDbSpline
210
0.0
220
0.0
230
1.0
 70
     8
 71
     3
 72
    11
 73
     7
 74
     0
 42
0.000000001
 43
0.00000001
 40
0.0
 40
0.0
 40
0.0
 40
0.0
 40
0.0816765747796576
 40
0.3471414117651179
 40
0.648762638632343
 40
1.0
 40
1.0
 40
1.0
 40
1.0
 10
8.668624344741781
 20
0.8177650164693877
 30
0.0
 10
8.66921105269607
 20
0.8176680250118193
 30
0.0
 10
8.671704676211695
 20
0.81725579235392
 30
0.0
 10
8.676062988813905
 20
0.8199863043731496
 30
0.0
 10
8.680334957723577
 20
0.8250537729602825
 30
0.0
 10
8.681620993693514
 20
0.8296417151298295
 30
0.0
 10
8.68231287994399
 20
0.832110024087969
 30
0.0
  0
SPLINE
  5
270
330
206
100
AcDbEntity
  8
0
  6
Continuous
 62
   179
370
    25
100
AcDbSpline
210
0.0
220
0.0
230
1.0
 70
     8
 71
     3
 72
     9
 73
     5
 74
     0
 42
0.000000001
 43
0.00000001
 40
0.0
 40
0.0
 40
0.0
 40
0.0
 40
0.5780726926844971
 40
1.0
 40
1.0
 40
1.0
 40
1.0
 10
8.339800890005057
 20
0.2499988661857385
 30
0.0
 10
8.339717743549274
 20
0.2511644274101348
 30
0.0
 10
8.339573909639052
 20
0.2531807157405596
 30
0.0
 10
8.33856841016334
 20
0.2549221233854416
 30
0.0
 10
8.338144162477048
 20
0.2556568708239861
 30
0.0
  0
SPLINE
  5
271
330
206
100
AcDbEntity
  8
0
  6
Continuous
 62
   179
370
    25
100
AcDbSpline
210
0.0
220
0.0
230
1.0
 70
     8
 71
     3
 72
     9
 73
     5
 74
     0
 42
0.000000001
 43
0.00000001
 40
0.0
 40
0.0
 40
0.0
 40
0.0
 40
0.5780726926844971
 40
1.0
 40
1.0
 40
1.0
 40
1.0
 10
8.339800890005057
 20
1.049998871184081
 30
0.0
 10
8.339717743549274
 20
1.051164432408478
 30
0.0
 10
8.339573909639052
 20
1.053180720738901
 30
0.0
 10
8.33856841016334
 20
1.054922128383784
 30
0.0
 10
8.338144162477048
 20
1.055656875822328
 30
0.0
  0
SPLINE
  5
272
330
206
100
AcDbEntity
  8
0
  6
Continuous
 62
   179
370
    25
100
AcDbSpline
210
0.0
220
0.0
230
1.0
 70
     8
 71
     3
 72
    11
 73
     7
 74
     0
 42
0.000000001
 43
0.00000001
 40
0.0
 40
0.0
 40
0.0
 40
0.0
 40
0.3257156357948627
 40
0.6127380380208569
 40
0.8122489792646548
 40
1.0
 40
1.0
 40
1.0
 40
1.0
 10
8.339800890005057
 20
1.292350014856322
 30
0.0
 10
8.339704591023171
 20
1.293472615061662
 30
0.0
 10
8.339523432851013
 20
1.295584456716494
 30
0.0
 10
8.338158877401797
 20
1.298080815544177
 30
0.0
 10
8.336375506278936
 20
1.29969355925806
 30
0.0
 10
8.335039174816016
 20
1.299899933047831
 30
0.0
 10
8.334391299163778
 20
1.299999986483197
 30
0.0
  0
SPLINE
  5
273
330
206
100
AcDbEntity
  8
0
  6
Continuous
 62
   179
370
    25
100
AcDbSpline
210
0.0
220
0.0
230
1.0
 70
     8
 71
     3
 72
    11
 73
     7
 74
     0
 42
0.000000001
 43
0.00000001
 40
0.0
 40
0.0
 40
0.0
 40
0.0
 40
0.2390801575024731
 40
0.5039471430191361
 40
0.7402321208128558
 40
0.9999999999999999
 40
0.9999999999999999
 40
0.9999999999999999
 40
0.9999999999999999
 10
8.334391299163778
 20
0.1250000135164844
 30
0.0
 10
8.335215097065737
 20
0.1251679577717484
 30
0.0
 10
8.336951546478572
 20
0.1255219604983275
 30
0.0
 10
8.338619064934976
 20
0.1276349132654283
 30
0.0
 10
8.339621257012588
 20
0.130050304721689
 30
0.0
 10
8.339739151977437
 20
0.1317565014938829
 30
0.0
 10
8.339800890005057
 20
0.1326499851433594
 30
0.0
  0
SPLINE
  5
274
330
206
100
AcDbEntity
  8
0
  6
Continuous
 62
   179
370
    25
100
AcDbSpline
210
0.0
220
0.0
230
1.0
 70
     8
 71
     3
 72
    10
 73
     6
 74
     0
 42
0.000000001
 43
0.00000001
 40
0.0
 40
0.0
 40
0.0
 40
0.0
 40
0.3504264314993661
 40
0.6299608450341521
 40
1.0
 40
1.0
 40
1.0
 40
1.0
 10
8.337094041274804
 20
0.3678578846683002
 30
0.0
 10
8.337595877156362
 20
0.3686116287948015
 30
0.0
 10
8.338498026445333
 20
0.3699666329959361
 30
0.0
 10
8.339577267472658
 20
0.3723510567206741
 30
0.0
 10
8.339719732629305
 20
0.3740379363418631
 30
0.0
 10
8.339800890005057
 20
0.3749988921747716
 30
0.0
  0
SPLINE
  5
275
330
206
100
AcDbEntity
  8
0
  6
Continuous
 62
   179
370
    25
100
AcDbSpline
210
0.0
220
0.0
230
1.0
 70
     8
 71
     3
 72
    10
 73
     6
 74
     0
 42
0.000000001
 43
0.00000001
 40
0.0
 40
0.0
 40
0.0
 40
0.0
 40
0.3504290383980604
 40
0.6299623300924068
 40
1.0
 40
1.0
 40
1.0
 40
1.0
 10
8.337094041274804
 20
1.167857853000399
 30
0.0
 10
8.337595875926139
 20
1.168611610100735
 30
0.0
 10
8.338498018419008
 20
1.169966630738928
 30
0.0
 10
8.33957726863309
 20
1.172351060992316
 30
0.0
 10
8.33971973305045
 20
1.174037941076471
 30
0.0
 10
8.339800890005057
 20
1.174998897173114
 30
0.0
  0
SPLINE
  5
276
330
206
100
AcDbEntity
  8
0
  6
Continuous
 62
   179
370
    25
100
AcDbSpline
210
0.0
220
0.0
230
1.0
 70
     8
 71
     3
 72
    11
 73
     7
 74
     0
 42
0.000000001
 43
0.00000001
 40
0.0
 40
0.0
 40
0.0
 40
0.0
 40
0.4033946556899342
 40
0.6839775578362786
 40
0.8516169686539383
 40
1.0
 40
1.0
 40
1.0
 40
1.0
 10
8.338144162477048
 20
0.2556568708239861
 30
0.0
 10
8.337780059922567
 20
0.2561872165699652
 30
0.0
 10
8.337162704257324
 20
0.2570864465994807
 30
0.0
 10
8.336553445390324
 20
0.2583060283025103
 30
0.0
 10
8.336294435972778
 20
0.2592290585903937
 30
0.0
 10
8.336274466963783
 20
0.2597336308794193
 30
0.0
 10
8.33626509085091
 20
0.259970544325395
 30
0.0
  0
SPLINE
  5
277
330
206
100
AcDbEntity
  8
0
  6
Continuous
 62
   179
370
    25
100
AcDbSpline
210
0.0
220
0.0
230
1.0
 70
     8
 71
     3
 72
    11
 73
     7
 74
     0
 42
0.000000001
 43
0.00000001
 40
0.0
 40
0.0
 40
0.0
 40
0.0
 40
0.4033946556899342
 40
0.6839775578362786
 40
0.8516169686539383
 40
1.0
 40
1.0
 40
1.0
 40
1.0
 10
8.338144162477048
 20
1.055656875822328
 30
0.0
 10
8.337780059922567
 20
1.056187221568306
 30
0.0
 10
8.337162704257324
 20
1.057086451597824
 30
0.0
 10
8.336553445390324
 20
1.058306033300853
 30
0.0
 10
8.336294435972778
 20
1.059229063588737
 30
0.0
 10
8.336274466963783
 20
1.059733635877761
 30
0.0
 10
8.33626509085091
 20
1.059970549323737
 30
0.0
  0
SPLINE
  5
278
330
206
100
AcDbEntity
  8
0
  6
Continuous
 62
   179
370
    25
100
AcDbSpline
210
0.0
220
0.0
230
1.0
 70
     8
 71
     3
 72
     9
 73
     5
 74
     0
 42
0.000000001
 43
0.00000001
 40
0.0
 40
0.0
 40
0.0
 40
0.0
 40
0.5780757818699992
 40
1.0
 40
1.0
 40
1.0
 40
1.0
 10
8.33626509085091
 20
1.165029455674287
 30
0.0
 10
8.336306914962247
 20
1.165612108397874
 30
0.0
 10
8.33637926553054
 20
1.166620025944087
 30
0.0
 10
8.336881947554765
 20
1.167490555498707
 30
0.0
 10
8.337094041274804
 20
1.167857853000399
 30
0.0
  0
SPLINE
  5
279
330
206
100
AcDbEntity
  8
0
  6
Continuous
 62
   179
370
    25
100
AcDbSpline
210
0.0
220
0.0
230
1.0
 70
     8
 71
     3
 72
     9
 73
     5
 74
     0
 42
0.000000001
 43
0.00000001
 40
0.0
 40
0.0
 40
0.0
 40
0.0
 40
0.5780694142541651
 40
1.0
 40
1.0
 40
1.0
 40
1.0
 10
8.33626509085091
 20
0.3650294506759444
 30
0.0
 10
8.336306917418959
 20
0.3656121022726191
 30
0.0
 10
8.336379273034074
 20
0.3666200289719191
 30
0.0
 10
8.33688194753021
 20
0.3674905747698562
 30
0.0
 10
8.337094041274804
 20
0.3678578846683002
 30
0.0
  0
SPLINE
  5
27A
330
206
100
AcDbEntity
  8
0
  6
Continuous
 62
   179
370
    25
100
AcDbSpline
210
0.0
220
0.0
230
1.0
 70
     8
 71
     3
 72
    11
 73
     7
 74
     0
 42
0.000000001
 43
0.00000001
 40
0.0
 40
0.0
 40
0.0
 40
0.0
 40
0.3214604588953761
 40
0.6054496135022372
 40
0.8072984058983901
 40
0.9999999999999999
 40
0.9999999999999999
 40
0.9999999999999999
 40
0.9999999999999999
 10
0.3327581826157457
 20
0.5929510893723909
 30
0.0
 10
0.3325218919930038
 20
0.5921215501892926
 30
0.0
 10
0.332076854159413
 20
0.59055916774413
 30
0.0
 10
0.3307489880630613
 20
0.5888151227798137
 30
0.0
 10
0.3292374802447973
 20
0.5877370120496104
 30
0.0
 10
0.3281859862094204
 20
0.5875777744430921
 30
0.0
 10
0.3276724280334833
 20
0.5875000015104896
 30
0.0
  0
SPLINE
  5
27B
330
206
100
AcDbEntity
  8
0
  6
Continuous
 62
   179
370
    25
100
AcDbSpline
210
0.0
220
0.0
230
1.0
 70
     8
 71
     3
 72
    15
 73
    11
 74
     0
 42
0.000000001
 43
0.00000001
 40
0.0
 40
0.0
 40
0.0
 40
0.0
 40
0.114663268952933
 40
0.2206136614766687
 40
0.3181024078479836
 40
0.40885935843161
 40
0.54062682330682
 40
0.6734211486768495
 40
0.8242802123653231
 40
1.0
 40
1.0
 40
1.0
 40
1.0
 10
0.3601786658519835
 20
0.593020782733954
 30
0.0
 10
0.3597682531670464
 20
0.5946205452659558
 30
0.0
 10
0.3589786136777213
 20
0.5976985097518887
 30
0.0
 10
0.3567557135596811
 20
0.6017442823150778
 30
0.0
 10
0.3539223881762514
 20
0.6049331035364571
 30
0.0
 10
0.3499767745253805
 20
0.607416756818444
 30
0.0
 10
0.3446097372510475
 20
0.608067150326273
 30
0.0
 10
0.3390545989748075
 20
0.6052809847803072
 30
0.0
 10
0.3347609096938592
 20
0.6000174484836472
 30
0.0
 10
0.3334683349375142
 20
0.5954684354336267
 30
0.0
 10
0.3327728491129838
 20
0.593020782733954
 30
0.0
  0
SPLINE
  5
27C
330
206
100
AcDbEntity
  8
0
  6
Continuous
 62
   179
370
    25
100
AcDbSpline
210
0.0
220
0.0
230
1.0
 70
     8
 71
     3
 72
    11
 73
     7
 74
     0
 42
0.000000001
 43
0.00000001
 40
0.0
 40
0.0
 40
0.0
 40
0.0
 40
0.2455722815612356
 40
0.5109629213952448
 40
0.7436664748373187
 40
0.9999999999999999
 40
0.9999999999999999
 40
0.9999999999999999
 40
0.9999999999999999
 10
0.365279086931484
 20
0.5875000015104898
 30
0.0
 10
0.3646249723493062
 20
0.5876228632238907
 30
0.0
 10
0.3632639543398184
 20
0.5878785019287481
 30
0.0
 10
0.3617708308641558
 20
0.5893064022756024
 30
0.0
 10
0.3607128287712128
 20
0.5910254162824681
 30
0.0
 10
0.3603716026620672
 20
0.5922888489124687
 30
0.0
 10
0.360192745689332
 20
0.5929510893723909
 30
0.0
  0
SPLINE
  5
27D
330
206
100
AcDbEntity
  8
0
  6
Continuous
 62
   179
370
    25
100
AcDbSpline
210
0.0
220
0.0
230
1.0
 70
     8
 71
     3
 72
    11
 73
     7
 74
     0
 42
0.000000001
 43
0.00000001
 40
0.0
 40
0.0
 40
0.0
 40
0.0
 40
0.3257329015507161
 40
0.6127515594841173
 40
0.8122711627243469
 40
0.9999999999999999
 40
0.9999999999999999
 40
0.9999999999999999
 40
0.9999999999999999
 10
0.3889091606215229
 20
0.5800000039844345
 30
0.0
 10
0.3888145617813575
 20
0.5811005786685796
 30
0.0
 10
0.3886366074311484
 20
0.58317092173441
 30
0.0
 10
0.3872992195323197
 20
0.5856185120937072
 30
0.0
 10
0.3855508380464918
 20
0.5871995036253004
 30
0.0
 10
0.3842408205549652
 20
0.587401889601081
 30
0.0
 10
0.3836057552202469
 20
0.5875000015104898
 30
0.0
  0
SPLINE
  5
27E
330
206
100
AcDbEntity
  8
0
  6
Continuous
 62
   179
370
    25
100
AcDbSpline
210
0.0
220
0.0
230
1.0
 70
     8
 71
     3
 72
    11
 73
     7
 74
     0
 42
0.000000001
 43
0.00000001
 40
0.0
 40
0.0
 40
0.0
 40
0.0
 40
0.2390379907717011
 40
0.5039121566484046
 40
0.7402217332568752
 40
1.0
 40
1.0
 40
1.0
 40
1.0
 10
0.3836057552202469
 20
0.4936743395592093
 30
0.0
 10
0.3844132093475368
 20
0.4938390334647233
 30
0.0
 10
0.3861153904500643
 20
0.494186222046952
 30
0.0
 10
0.3877500029515615
 20
0.4962576544843391
 30
0.0
 10
0.3887330837055937
 20
0.4986255254921246
 30
0.0
 10
0.3888486459940997
 20
0.5002983480754428
 30
0.0
 10
0.3889091606215229
 20
0.5011743279187042
 30
0.0
  0
SPLINE
  5
27F
330
206
100
AcDbEntity
  8
0
  6
Continuous
 62
   179
370
    25
100
AcDbSpline
210
0.0
220
0.0
230
1.0
 70
     8
 71
     3
 72
    11
 73
     7
 74
     0
 42
0.000000001
 43
0.00000001
 40
0.0
 40
0.0
 40
0.0
 40
0.0
 40
0.32573285833474
 40
0.6127514781885017
 40
0.8122716308952926
 40
1.0
 40
1.0
 40
1.0
 40
1.0
 10
0.3712313381705697
 20
0.5011743279187042
 30
0.0
 10
0.3713259366497663
 20
0.5000737526326593
 30
0.0
 10
0.3715038903209396
 20
0.4980034084345659
 30
0.0
 10
0.3728412833477748
 20
0.4955558233093534
 30
0.0
 10
0.3745896551065027
 20
0.4939748139473288
 30
0.0
 10
0.3758996775524411
 20
0.4937724436182255
 30
0.0
 10
0.3765347435718446
 20
0.4936743395592093
 30
0.0
  0
SPLINE
  5
280
330
206
100
AcDbEntity
  8
0
  6
Continuous
 62
   179
370
    25
100
AcDbSpline
210
0.0
220
0.0
230
1.0
 70
     8
 71
     3
 72
    11
 73
     7
 74
     0
 42
0.000000001
 43
0.00000001
 40
0.0
 40
0.0
 40
0.0
 40
0.0
 40
0.239034108051261
 40
0.5039428402868219
 40
0.7402262549270432
 40
1.0
 40
1.0
 40
1.0
 40
1.0
 10
0.3659279327692948
 20
0.5625000036459323
 30
0.0
 10
0.3667353355814493
 20
0.5623352650474752
 30
0.0
 10
0.3684375397971166
 20
0.5619879554610399
 30
0.0
 10
0.3700729682019943
 20
0.5599170333900879
 30
0.0
 10
0.3710550619485505
 20
0.5575486368554281
 30
0.0
 10
0.3711707532777432
 20
0.5558759525078708
 30
0.0
 10
0.3712313381705697
 20
0.5550000061198765
 30
0.0
  0
SPLINE
  5
281
330
206
100
AcDbEntity
  8
0
  6
Continuous
 62
   179
370
    25
100
AcDbSpline
210
0.0
220
0.0
230
1.0
 70
     8
 71
     3
 72
    11
 73
     7
 74
     0
 42
0.000000001
 43
0.00000001
 40
0.0
 40
0.0
 40
0.0
 40
0.0
 40
0.3257329015507161
 40
0.6127515594841173
 40
0.8122711627243469
 40
0.9999999999999999
 40
0.9999999999999999
 40
0.9999999999999999
 40
0.9999999999999999
 10
0.0176778224509543
 20
0.5550000061198777
 30
0.0
 10
0.0177724212911198
 20
0.5561005808040227
 30
0.0
 10
0.0179503756413277
 20
0.5581709238698542
 30
0.0
 10
0.0192877635401586
 20
0.5606185142291491
 30
0.0
 10
0.0210361450259843
 20
0.5621995057607424
 30
0.0
 10
0.0223461625175109
 20
0.5624018917365247
 30
0.0
 10
0.0229812278522281
 20
0.5625000036459323
 30
0.0
  0
SPLINE
  5
282
330
206
100
AcDbEntity
  8
0
  6
Continuous
 62
   179
370
    25
100
AcDbSpline
210
0.0
220
0.0
230
1.0
 70
     8
 71
     3
 72
    10
 73
     6
 74
     0
 42
0.000000001
 43
0.00000001
 40
0.0
 40
0.0
 40
0.0
 40
0.0
 40
0.3504264314993661
 40
0.6299608450341521
 40
1.0
 40
1.0
 40
1.0
 40
1.0
 10
0.0149709737206998
 20
0.3678578846683011
 30
0.0
 10
0.0154728096022573
 20
0.3686116287948024
 30
0.0
 10
0.0163749588912309
 20
0.3699666329959368
 30
0.0
 10
0.0174541999185552
 20
0.3723510567206741
 30
0.0
 10
0.0175966650752033
 20
0.3740379363418631
 30
0.0
 10
0.0176778224509543
 20
0.3749988921747716
 30
0.0
  0
SPLINE
  5
283
330
206
100
AcDbEntity
  8
0
  6
Continuous
 62
   179
370
    25
100
AcDbSpline
210
0.0
220
0.0
230
1.0
 70
     8
 71
     3
 72
     9
 73
     5
 74
     0
 42
0.000000001
 43
0.00000001
 40
0.0
 40
0.0
 40
0.0
 40
0.0
 40
0.5780564520612782
 40
1.0
 40
1.0
 40
1.0
 40
1.0
 10
0.0141426099566964
 20
0.3650294506759447
 30
0.0
 10
0.0141841894517053
 20
0.365612109830625
 30
0.0
 10
0.0142561192690428
 20
0.3666200722062775
 30
0.0
 10
0.0147588498118231
 20
0.3674905796633541
 30
0.0
 10
0.0149709737206998
 20
0.3678578846683011
 30
0.0
  0
SPLINE
  5
284
330
206
100
AcDbEntity
  8
0
  6
Continuous
 62
   179
370
    25
100
AcDbSpline
210
0.0
220
0.0
230
1.0
 70
     8
 71
     3
 72
    11
 73
     7
 74
     0
 42
0.000000001
 43
0.00000001
 40
0.0
 40
0.0
 40
0.0
 40
0.0
 40
0.4034070348588554
 40
0.6839460211870036
 40
0.8516217023807613
 40
0.9999999999999999
 40
0.9999999999999999
 40
0.9999999999999999
 40
0.9999999999999999
 10
0.0160210949229432
 20
0.255656870823986
 30
0.0
 10
0.0156568209025585
 20
0.256187153451404
 30
0.0
 10
0.015039221938397
 20
0.2570862074137474
 30
0.0
 10
0.0144314452766929
 20
0.2583062952824163
 30
0.0
 10
0.0141710342593051
 20
0.2592289347728731
 30
0.0
 10
0.014151691043102
 20
0.2597336125519472
 30
0.0
 10
0.0141426099566964
 20
0.259970544325395
 30
0.0
  0
SPLINE
  5
285
330
206
100
AcDbEntity
  8
0
  6
Continuous
 62
   179
370
    25
100
AcDbSpline
210
0.0
220
0.0
230
1.0
 70
     8
 71
     3
 72
     9
 73
     5
 74
     0
 42
0.000000001
 43
0.00000001
 40
0.0
 40
0.0
 40
0.0
 40
0.0
 40
0.5780726926844971
 40
1.0
 40
1.0
 40
1.0
 40
1.0
 10
0.0176778224509532
 20
0.2499988661857385
 30
0.0
 10
0.0175946759951698
 20
0.2511644274101348
 30
0.0
 10
0.0174508420849457
 20
0.2531807157405596
 30
0.0
 10
0.0164453426092357
 20
0.2549221233854416
 30
0.0
 10
0.0160210949229432
 20
0.2556568708239861
 30
0.0
  0
SPLINE
  5
286
330
206
100
AcDbEntity
  8
0
  6
Continuous
 62
   179
370
    25
100
AcDbSpline
210
0.0
220
0.0
230
1.0
 70
     8
 71
     3
 72
    11
 73
     7
 74
     0
 42
0.000000001
 43
0.00000001
 40
0.0
 40
0.0
 40
0.0
 40
0.0
 40
0.2390387174451342
 40
0.5039201277440857
 40
0.7402179737303288
 40
1.0
 40
1.0
 40
1.0
 40
1.0
 10
0.0122688182695633
 20
0.1250000135164844
 30
0.0
 10
0.0130924006769546
 20
0.1251679998838457
 30
0.0
 10
0.0148286037338304
 20
0.1255221337773198
 30
0.0
 10
0.0164959968601836
 20
0.1276349089124509
 30
0.0
 10
0.0174981895969406
 20
0.130050305879179
 30
0.0
 10
0.0176160844709187
 20
0.1317565018917
 30
0.0
 10
0.0176778224509532
 20
0.1326499851433594
 30
0.0
  0
SPLINE
  5
287
330
206
100
AcDbEntity
  8
0
  6
Continuous
 62
   179
370
    25
100
AcDbSpline
210
0.0
220
0.0
230
1.0
 70
     8
 71
     3
 72
    11
 73
     7
 74
     0
 42
0.000000001
 43
0.00000001
 40
0.0
 40
0.0
 40
0.0
 40
0.0
 40
0.3257397718710903
 40
0.6127754846302547
 40
0.8122956781030797
 40
1.0
 40
1.0
 40
1.0
 40
1.0
 10
0.0
 20
0.1326499851433594
 30
0.0
 10
0.0000965459265989
 20
0.1315273933531053
 30
0.0
 10
0.0002781662937413
 20
0.1294155949553735
 30
0.0
 10
0.001642577038104
 20
0.126919176205569
 30
0.0
 10
0.0034258260054596
 20
0.1253065849532721
 30
0.0
 10
0.0047619259318595
 20
0.125100103788402
 30
0.0
 10
0.0054095908412783
 20
0.1250000135164844
 30
0.0
  0
SPLINE
  5
288
330
206
100
AcDbEntity
  8
0
  6
Continuous
 62
   179
370
    25
100
AcDbSpline
210
0.0
220
0.0
230
1.0
 70
     8
 71
     3
 72
    10
 73
     6
 74
     0
 42
0.000000001
 43
0.00000001
 40
0.0
 40
0.0
 40
0.0
 40
0.0
 40
0.3102283721908817
 40
0.5884006100984542
 40
1.0
 40
1.0
 40
1.0
 40
1.0
 10
0.0027872211351169
 20
0.710748076878831
 30
0.0
 10
0.0022956709529198
 20
0.7101021829738144
 30
0.0
 10
0.0013633628437162
 20
0.7088771358735539
 30
0.0
 10
0.0002510316503924
 20
0.7064697499001961
 30
0.0
 10
0.0000938144117509
 20
0.7046587226636203
 30
0.0
 10
0.0
 20
0.7035780494732244
 30
0.0
  0
SPLINE
  5
289
330
206
100
AcDbEntity
  8
0
  6
Continuous
 62
   179
370
    25
100
AcDbSpline
210
0.0
220
0.0
230
1.0
 70
     8
 71
     3
 72
    11
 73
     7
 74
     0
 42
0.000000001
 43
0.00000001
 40
0.0
 40
0.0
 40
0.0
 40
0.0
 40
0.2664692531445382
 40
0.5501549949105534
 40
0.7770655291632936
 40
0.9999999999999999
 40
0.9999999999999999
 40
0.9999999999999999
 40
0.9999999999999999
 10
0.0021759215302355
 20
0.7177661347379194
 30
0.0
 10
0.0025519900282851
 20
0.717214120446397
 30
0.0
 10
0.0033284246832736
 20
0.7160744264060566
 30
0.0
 10
0.0035982311620848
 20
0.7141162416553439
 30
0.0
 10
0.0034624327561492
 20
0.7122847808313706
 30
0.0
 10
0.0030109615297394
 20
0.7112572842710754
 30
0.0
 10
0.0027872211351169
 20
0.710748076878831
 30
0.0
  0
SPLINE
  5
28A
330
206
100
AcDbEntity
  8
0
  6
Continuous
 62
   179
370
    25
100
AcDbSpline
210
0.0
220
0.0
230
1.0
 70
     8
 71
     3
 72
     9
 73
     5
 74
     0
 42
0.000000001
 43
0.00000001
 40
0.0
 40
0.0
 40
0.0
 40
0.0
 40
0.5836625063059055
 40
1.0
 40
1.0
 40
1.0
 40
1.0
 10
0.0
 20
0.724071951111341
 30
0.0
 10
0.0001084027675192
 20
0.7227255276605704
 30
0.0
 10
0.0002941312773132
 20
0.7204186749225191
 30
0.0
 10
0.0016227625260802
 20
0.7185458584529908
 30
0.0
 10
0.0021759215302355
 20
0.7177661347379194
 30
0.0
  0
SPLINE
  5
28B
330
206
100
AcDbEntity
  8
0
  6
Continuous
 62
   179
370
    25
100
AcDbSpline
210
0.0
220
0.0
230
1.0
 70
     8
 71
     3
 72
    11
 73
     7
 74
     0
 42
0.000000001
 43
0.00000001
 40
0.0
 40
0.0
 40
0.0
 40
0.0
 40
0.2390335490978007
 40
0.5039092322946942
 40
0.7402235905766585
 40
1.0
 40
1.0
 40
1.0
 40
1.0
 10
0.0054095908412772
 20
1.299999986483197
 30
0.0
 10
0.0045859928414351
 20
1.299832006434353
 30
0.0
 10
0.0028497569139404
 20
1.299477885861016
 30
0.0
 10
0.0011825721719468
 20
1.297364944831462
 30
0.0
 10
0.0001794579406851
 20
1.294949843055963
 30
0.0
 10
0.0000616760998288
 20
1.293243523736262
 30
0.0
 10
0.0
 20
1.292350014856322
 30
0.0
  0
SPLINE
  5
28C
330
206
100
AcDbEntity
  8
0
  6
Continuous
 62
   179
370
    25
100
AcDbSpline
210
0.0
220
0.0
230
1.0
 70
     8
 71
     3
 72
    11
 73
     7
 74
     0
 42
0.000000001
 43
0.00000001
 40
0.0
 40
0.0
 40
0.0
 40
0.0
 40
0.3257336824627627
 40
0.612771987511353
 40
0.8122939828996357
 40
1.0
 40
1.0
 40
1.0
 40
1.0
 10
0.0176778224509521
 20
1.292350014856322
 30
0.0
 10
0.0175815235823648
 20
1.293472614547106
 30
0.0
 10
0.0174003656233438
 20
1.295584455233953
 30
0.0
 10
0.0160358088621452
 20
1.29808082002017
 30
0.0
 10
0.014252587669604
 20
1.299693415788531
 30
0.0
 10
0.0129164846691222
 20
1.299899896453569
 30
0.0
 10
0.0122688182695644
 20
1.299999986483197
 30
0.0
  0
SPLINE
  5
28D
330
206
100
AcDbEntity
  8
0
  6
Continuous
 62
   179
370
    25
100
AcDbSpline
210
0.0
220
0.0
230
1.0
 70
     8
 71
     3
 72
    10
 73
     6
 74
     0
 42
0.000000001
 43
0.00000001
 40
0.0
 40
0.0
 40
0.0
 40
0.0
 40
0.3504290383980604
 40
0.6299623300924068
 40
1.0
 40
1.0
 40
1.0
 40
1.0
 10
0.0149709737206996
 20
1.167857853000399
 30
0.0
 10
0.0154728083720327
 20
1.168611610100735
 30
0.0
 10
0.0163749508649038
 20
1.169966630738928
 30
0.0
 10
0.017454201078979
 20
1.172351060992316
 30
0.0
 10
0.017596665496344
 20
1.174037941076471
 30
0.0
 10
0.0176778224509521
 20
1.174998897173114
 30
0.0
  0
SPLINE
  5
28E
330
206
100
AcDbEntity
  8
0
  6
Continuous
 62
   179
370
    25
100
AcDbSpline
210
0.0
220
0.0
230
1.0
 70
     8
 71
     3
 72
     9
 73
     5
 74
     0
 42
0.000000001
 43
0.00000001
 40
0.0
 40
0.0
 40
0.0
 40
0.0
 40
0.578062819729948
 40
1.0
 40
1.0
 40
1.0
 40
1.0
 10
0.0141426099566963
 20
1.165029455674287
 30
0.0
 10
0.0141841869945532
 20
1.165612115955895
 30
0.0
 10
0.0142561117688841
 20
1.166620069177799
 30
0.0
 10
0.0147588498375799
 20
1.16749056039202
 30
0.0
 10
0.0149709737206996
 20
1.167857853000399
 30
0.0
  0
SPLINE
  5
28F
330
206
100
AcDbEntity
  8
0
  6
Continuous
 62
   179
370
    25
100
AcDbSpline
210
0.0
220
0.0
230
1.0
 70
     8
 71
     3
 72
    11
 73
     7
 74
     0
 42
0.000000001
 43
0.00000001
 40
0.0
 40
0.0
 40
0.0
 40
0.0
 40
0.4034070348588554
 40
0.6839460211870036
 40
0.8516217023807613
 40
0.9999999999999999
 40
0.9999999999999999
 40
0.9999999999999999
 40
0.9999999999999999
 10
0.0160210949229432
 20
1.055656875822328
 30
0.0
 10
0.0156568209025585
 20
1.056187158449746
 30
0.0
 10
0.015039221938397
 20
1.05708621241209
 30
0.0
 10
0.0144314452766928
 20
1.058306300280758
 30
0.0
 10
0.014171034259305
 20
1.059228939771215
 30
0.0
 10
0.0141516910431019
 20
1.05973361755029
 30
0.0
 10
0.0141426099566963
 20
1.059970549323737
 30
0.0
  0
SPLINE
  5
290
330
206
100
AcDbEntity
  8
0
  6
Continuous
 62
   179
370
    25
100
AcDbSpline
210
0.0
220
0.0
230
1.0
 70
     8
 71
     3
 72
     9
 73
     5
 74
     0
 42
0.000000001
 43
0.00000001
 40
0.0
 40
0.0
 40
0.0
 40
0.0
 40
0.5780726926844971
 40
1.0
 40
1.0
 40
1.0
 40
1.0
 10
0.0176778224509532
 20
1.049998871184081
 30
0.0
 10
0.0175946759951698
 20
1.051164432408478
 30
0.0
 10
0.0174508420849446
 20
1.053180720738901
 30
0.0
 10
0.0164453426092357
 20
1.054922128383784
 30
0.0
 10
0.0160210949229432
 20
1.055656875822328
 30
0.0
  0
SPLINE
  5
291
330
206
100
AcDbEntity
  8
0
  6
Continuous
 62
   179
370
    25
100
AcDbSpline
210
0.0
220
0.0
230
1.0
 70
     8
 71
     3
 72
    11
 73
     7
 74
     0
 42
0.000000001
 43
0.00000001
 40
0.0
 40
0.0
 40
0.0
 40
0.0
 40
0.2390382022823604
 40
0.5039122945368479
 40
0.7402218054626776
 40
1.0
 40
1.0
 40
1.0
 40
1.0
 10
0.0229812278522281
 20
0.8624999963537494
 30
0.0
 10
0.0221737738756641
 20
0.8626646938863484
 30
0.0
 10
0.0204715941312617
 20
0.8630118899025676
 30
0.0
 10
0.0188369799024149
 20
0.8650833197930791
 30
0.0
 10
0.017853899424979
 20
0.8674511916266869
 30
0.0
 10
0.0177383370983408
 20
0.8691240140961587
 30
0.0
 10
0.0176778224509532
 20
0.8699999938798046
 30
0.0
  0
SPLINE
  5
292
330
206
100
AcDbEntity
  8
0
  6
Continuous
 62
   179
370
    25
100
AcDbSpline
210
0.0
220
0.0
230
1.0
 70
     8
 71
     3
 72
    11
 73
     7
 74
     0
 42
0.000000001
 43
0.00000001
 40
0.0
 40
0.0
 40
0.0
 40
0.0
 40
0.3257329015507161
 40
0.6127515594841173
 40
0.8122711627243469
 40
0.9999999999999999
 40
0.9999999999999999
 40
0.9999999999999999
 40
0.9999999999999999
 10
0.3712313381705697
 20
0.8699999938798052
 30
0.0
 10
0.3711367393304043
 20
0.8688994191956596
 30
0.0
 10
0.3709587849801963
 20
0.8668290761298292
 30
0.0
 10
0.3696213970813654
 20
0.8643814857705325
 30
0.0
 10
0.3678730155955408
 20
0.8628004942389382
 30
0.0
 10
0.3665629981040131
 20
0.8625981082631576
 30
0.0
 10
0.3659279327692948
 20
0.8624999963537494
 30
0.0
  0
SPLINE
  5
293
330
206
100
AcDbEntity
  8
0
  6
Continuous
 62
   179
370
    25
100
AcDbSpline
210
0.0
220
0.0
230
1.0
 70
     8
 71
     3
 72
    11
 73
     7
 74
     0
 42
0.000000001
 43
0.00000001
 40
0.0
 40
0.0
 40
0.0
 40
0.0
 40
0.2390859530368633
 40
0.5039510988745839
 40
0.7402305797598371
 40
1.0
 40
1.0
 40
1.0
 40
1.0
 10
0.3765347435718435
 20
0.9311743388552179
 30
0.0
 10
0.3757270898484222
 20
0.9310096734885964
 30
0.0
 10
0.3740246979836625
 20
0.93066258788444
 30
0.0
 10
0.3723897482783244
 20
0.9285911487758359
 30
0.0
 10
0.3714075902740592
 20
0.9262229864914636
 30
0.0
 10
0.3712919147740264
 20
0.9245502866594504
 30
0.0
 10
0.3712313381705697
 20
0.9236743321626019
 30
0.0
  0
SPLINE
  5
294
330
206
100
AcDbEntity
  8
0
  6
Continuous
 62
   179
370
    25
100
AcDbSpline
210
0.0
220
0.0
230
1.0
 70
     8
 71
     3
 72
    11
 73
     7
 74
     0
 42
0.000000001
 43
0.00000001
 40
0.0
 40
0.0
 40
0.0
 40
0.0
 40
0.3257327139490275
 40
0.6127512065777124
 40
0.812271270844364
 40
1.0
 40
1.0
 40
1.0
 40
1.0
 10
0.3889091606215229
 20
0.9236743321626019
 30
0.0
 10
0.3888145620802238
 20
0.9247749072088004
 30
0.0
 10
0.3886366082922302
 20
0.9268452509557084
 30
0.0
 10
0.3872992159844807
 20
0.9292928388581535
 30
0.0
 10
0.3855508412137461
 20
0.9308738420657733
 30
0.0
 10
0.3842408209529398
 20
0.9310762274018436
 30
0.0
 10
0.383605755220248
 20
0.9311743388552179
 30
0.0
  0
SPLINE
  5
295
330
206
100
AcDbEntity
  8
0
  6
Continuous
 62
   179
370
    25
100
AcDbSpline
210
0.0
220
0.0
230
1.0
 70
     8
 71
     3
 72
    11
 73
     7
 74
     0
 42
0.000000001
 43
0.00000001
 40
0.0
 40
0.0
 40
0.0
 40
0.0
 40
0.2390382022823604
 40
0.5039122945368479
 40
0.7402218054626776
 40
1.0
 40
1.0
 40
1.0
 40
1.0
 10
0.383605755220248
 20
0.8374999984891919
 30
0.0
 10
0.384413209196812
 20
0.8376646960217904
 30
0.0
 10
0.3861153889412133
 20
0.8380118920380091
 30
0.0
 10
0.3877500031700613
 20
0.8400833219285216
 30
0.0
 10
0.388733083647496
 20
0.8424511937621284
 30
0.0
 10
0.388848645974132
 20
0.8441240162316006
 30
0.0
 10
0.3889091606215229
 20
0.8449999960152466
 30
0.0
  0
SPLINE
  5
296
330
206
100
AcDbEntity
  8
0
  6
Continuous
 62
   179
370
    25
100
AcDbSpline
210
0.0
220
0.0
230
1.0
 70
     8
 71
     3
 72
     9
 73
     5
 74
     0
 42
0.000000001
 43
0.00000001
 40
0.0
 40
0.0
 40
0.0
 40
0.0
 40
0.5792459962417172
 40
1.0
 40
1.0
 40
1.0
 40
1.0
 10
0.3615878229066143
 20
0.8354402172839596
 30
0.0
 10
0.3621650676360014
 20
0.8360860190535528
 30
0.0
 10
0.363161612684445
 20
0.8372009197585804
 30
0.0
 10
0.3646235087686148
 20
0.83741142680612
 30
0.0
 10
0.365238607399107
 20
0.8374999984891919
 30
0.0
  0
SPLINE
  5
297
330
206
100
AcDbEntity
  8
0
  6
Continuous
 62
   179
370
    25
100
AcDbSpline
210
0.0
220
0.0
230
1.0
 70
     8
 71
     3
 72
     9
 73
     5
 74
     0
 42
0.000000001
 43
0.00000001
 40
0.0
 40
0.0
 40
0.0
 40
0.0
 40
0.582000053797402
 40
1.0
 40
1.0
 40
1.0
 40
1.0
 10
0.3601898123898844
 20
0.832110024087969
 30
0.0
 10
0.3603628767287131
 20
0.8327993443556848
 30
0.0
 10
0.3606602381081482
 20
0.8339837433316252
 30
0.0
 10
0.3613143882024059
 20
0.8350108759180798
 30
0.0
 10
0.3615878229066143
 20
0.8354402172839596
 30
0.0
  0
SPLINE
  5
298
330
206
100
AcDbEntity
  8
0
  6
Continuous
 62
   179
370
    25
100
AcDbSpline
210
0.0
220
0.0
230
1.0
 70
     8
 71
     3
 72
    15
 73
    11
 74
     0
 42
0.000000001
 43
0.00000001
 40
0.0
 40
0.0
 40
0.0
 40
0.0
 40
0.1150576688261088
 40
0.2213404788985872
 40
0.3190855528633325
 40
0.4100654667308705
 40
0.5414479226333133
 40
0.674002933148632
 40
0.8246206803068374
 40
1.0
 40
1.0
 40
1.0
 40
1.0
 10
0.3327617025750818
 20
0.832110024087969
 30
0.0
 10
0.3331714429405473
 20
0.8304997042670865
 30
0.0
 10
0.3339596748736454
 20
0.8274018754654899
 30
0.0
 10
0.3361936710116491
 20
0.8233316058016339
 30
0.0
 10
0.3390440095000413
 20
0.8201267340985775
 30
0.0
 10
0.3430085325760217
 20
0.8176452486152025
 30
0.0
 10
0.348386108397909
 20
0.8170168104589774
 30
0.0
 10
0.3539327177602593
 20
0.819825269809838
 30
0.0
 10
0.3582149033795459
 20
0.825104050875907
 30
0.0
 10
0.3594989976487341
 20
0.8296593645661104
 30
0.0
 10
0.3601898123898844
 20
0.832110024087969
 30
0.0
  0
SPLINE
  5
299
330
206
100
AcDbEntity
  8
0
  6
Continuous
 62
   179
370
    25
100
AcDbSpline
210
0.0
220
0.0
230
1.0
 70
     8
 71
     3
 72
     9
 73
     5
 74
     0
 42
0.000000001
 43
0.00000001
 40
0.0
 40
0.0
 40
0.0
 40
0.0
 40
0.5180287111360686
 40
1.0
 40
1.0
 40
1.0
 40
1.0
 10
0.3295462197206152
 20
0.8370841849593714
 30
0.0
 10
0.3303764524240924
 20
0.836400025429609
 30
0.0
 10
0.331979129429497
 20
0.8350793273388363
 30
0.0
 10
0.3325071917148219
 20
0.8330757100804048
 30
0.0
 10
0.3327617025750818
 20
0.832110024087969
 30
0.0
  0
SPLINE
  5
29A
330
206
100
AcDbEntity
  8
0
  6
Continuous
 62
   179
370
    25
100
AcDbSpline
210
0.0
220
0.0
230
1.0
 70
     8
 71
     3
 72
     9
 73
     5
 74
     0
 42
0.000000001
 43
0.00000001
 40
0.0
 40
0.0
 40
0.0
 40
0.0
 40
0.5581584091826345
 40
1.0
 40
1.0
 40
1.0
 40
1.0
 10
0.3277129075658603
 20
0.8374999984891924
 30
0.0
 10
0.3280689185442414
 20
0.8374842216362401
 30
0.0
 10
0.3287067499779806
 20
0.8374559557305556
 30
0.0
 10
0.3292889704854064
 20
0.8371981113365875
 30
0.0
 10
0.3295462197206152
 20
0.8370841849593714
 30
0.0
  0
SPLINE
  5
29B
330
206
100
AcDbEntity
  8
0
  6
Continuous
 62
   179
370
    25
100
AcDbSpline
210
0.0
220
0.0
230
1.0
 70
     8
 71
     3
 72
    11
 73
     7
 74
     0
 42
0.000000001
 43
0.00000001
 40
0.0
 40
0.0
 40
0.0
 40
0.0
 40
0.325732829478817
 40
0.6127522211018815
 40
0.8122712042613663
 40
1.0
 40
1.0
 40
1.0
 40
1.0
 10
0.0176778224509534
 20
0.8300000009631376
 30
0.0
 10
0.0177724222522988
 20
0.8311005749432756
 30
0.0
 10
0.0179503786421525
 20
0.8331709193783017
 30
0.0
 10
0.0192877572085874
 20
0.8356185181699345
 30
0.0
 10
0.0210361483341714
 20
0.837199499432238
 30
0.0
 10
0.0223461629615039
 20
0.8374018860989298
 30
0.0
 10
0.0229812278522281
 20
0.8374999984891924
 30
0.0
  0
SPLINE
  5
29C
330
206
100
AcDbEntity
  8
0
  6
Continuous
 62
   179
370
    25
100
AcDbSpline
210
0.0
220
0.0
230
1.0
 70
     8
 71
     3
 72
    11
 73
     7
 74
     0
 42
0.000000001
 43
0.00000001
 40
0.0
 40
0.0
 40
0.0
 40
0.0
 40
0.2390378148927368
 40
0.503912461094925
 40
0.7402210201438381
 40
1.0
 40
1.0
 40
1.0
 40
1.0
 10
0.0229812278522282
 20
0.5875000015104896
 30
0.0
 10
0.0221737732655726
 20
0.5876646950793155
 30
0.0
 10
0.0204715889138343
 20
0.5880118834169908
 30
0.0
 10
0.0188369855182815
 20
0.5900833230262843
 30
0.0
 10
0.017853896063567
 20
0.5924511921790035
 30
0.0
 10
0.0177383360764791
 20
0.5941240157394049
 30
0.0
 10
0.0176778224509535
 20
0.594999999036545
 30
0.0
  0
ENDBLK
  5
208
330
206
100
AcDbEntity
  8
0
100
AcDbBlockEnd
  0
BLOCK
  5
2A3
330
2A2
100
AcDbEntity
  8
0
100
AcDbBlockBegin
  2
SW_TABLEANNOTATION_0
 70
     0
 10
0.0
 20
0.0
 30
0.0
  3
SW_TABLEANNOTATION_0
  1

  0
LINE
  5
2A5
330
2A2
100
AcDbEntity
  8
FORMAT
 62
     0
100
AcDbLine
 10
0.0
 20
0.0
 30
0.0
 11
0.0
 21
-1.0877351438
 31
0.0
  0
LINE
  5
2A6
330
2A2
100
AcDbEntity
  8
FORMAT
 62
     0
100
AcDbLine
 10
0.0
 20
-1.0877351438
 30
0.0
 11
3.5338148144
 21
-1.0877351438
 31
0.0
  0
LINE
  5
2A7
330
2A2
100
AcDbEntity
  8
FORMAT
 62
     0
100
AcDbLine
 10
3.5338148144
 20
-1.0877351438
 30
0.0
 11
3.5338148144
 21
0.0
 31
0.0
  0
LINE
  5
2A8
330
2A2
100
AcDbEntity
  8
FORMAT
 62
     0
100
AcDbLine
 10
3.5338148144
 20
0.0
 30
0.0
 11
0.0
 21
0.0
 31
0.0
  0
LINE
  5
2A9
330
2A2
100
AcDbEntity
  8
FORMAT
 62
     0
100
AcDbLine
 10
1.7669074072
 20
-0.2175470288
 30
0.0
 11
1.7669074072
 21
-1.0877351438
 31
0.0
  0
LINE
  5
2AA
330
2A2
100
AcDbEntity
  8
FORMAT
 62
     0
100
AcDbLine
 10
0.0
 20
-0.2175470288
 30
0.0
 11
3.5338148144
 21
-0.2175470288
 31
0.0
  0
LINE
  5
2AB
330
2A2
100
AcDbEntity
  8
FORMAT
 62
     0
100
AcDbLine
 10
0.0
 20
-0.4350940575
 30
0.0
 11
3.5338148144
 21
-0.4350940575
 31
0.0
  0
LINE
  5
2AC
330
2A2
100
AcDbEntity
  8
FORMAT
 62
     0
100
AcDbLine
 10
0.0
 20
-0.6526410863
 30
0.0
 11
3.5338148144
 21
-0.6526410863
 31
0.0
  0
LINE
  5
2AD
330
2A2
100
AcDbEntity
  8
FORMAT
 62
     0
100
AcDbLine
 10
0.0
 20
-0.870188115
 30
0.0
 11
3.5338148144
 21
-0.870188115
 31
0.0
  0
MTEXT
  5
2AE
330
2A2
100
AcDbEntity
  8
FORMAT
 62
     0
100
AcDbMText
 10
0.4920140682
 20
-0.0372487842
 30
0.0
 40
0.1377952756
 41
0.0
 71
     1
 72
     1
  1
PANEL TO PANEL LED WITH LIP
  7
SLDTEXTSTYLE1
 73
     1
 44
1.0
  0
MTEXT
  5
2AF
330
2A2
100
AcDbEntity
  8
FORMAT
 62
     0
100
AcDbMText
 10
0.4847268631
 20
-0.2642743332
 30
0.0
 40
0.125
 41
0.0
 71
     1
 72
     1
  1
Panel Size
  7
SLDTEXTSTYLE1
 73
     1
 44
1.0
  0
MTEXT
  5
2B0
330
2A2
100
AcDbEntity
  8
FORMAT
 62
     0
100
AcDbMText
 10
1.9818425869
 20
-0.2642743332
 30
0.0
 40
0.125
 41
0.0
 71
     1
 72
     1
  1
Product Number
  7
SLDTEXTSTYLE1
 73
     1
 44
1.0
  0
MTEXT
  5
2B1
330
2A2
100
AcDbEntity
  8
FORMAT
 62
     0
100
AcDbMText
 10
0.7417098727
 20
-0.4870443925
 30
0.0
 40
0.1145833333
 41
0.0
 71
     1
 72
     1
  1
1/2"
  7
SLDTEXTSTYLE1
 73
     1
 44
1.0
  0
MTEXT
  5
2B2
330
2A2
100
AcDbEntity
  8
FORMAT
 62
     0
100
AcDbMText
 10
2.1248692047
 20
-0.4870443925
 30
0.0
 40
0.1145833333
 41
0.0
 71
     1
 72
     1
  1
PTP-WL-LED-50
  7
SLDTEXTSTYLE1
 73
     1
 44
1.0
  0
MTEXT
  5
2B3
330
2A2
100
AcDbEntity
  8
FORMAT
 62
     0
100
AcDbMText
 10
0.7417098727
 20
-0.7045914213
 30
0.0
 40
0.1145833333
 41
0.0
 71
     1
 72
     1
  1
3/4"
  7
SLDTEXTSTYLE1
 73
     1
 44
1.0
  0
MTEXT
  5
2B4
330
2A2
100
AcDbEntity
  8
FORMAT
 62
     0
100
AcDbMText
 10
2.1248692047
 20
-0.7045914213
 30
0.0
 40
0.1145833333
 41
0.0
 71
     1
 72
     1
  1
PTP-WL-LED-75
  7
SLDTEXTSTYLE1
 73
     1
 44
1.0
  0
MTEXT
  5
2B5
330
2A2
100
AcDbEntity
  8
FORMAT
 62
     0
100
AcDbMText
 10
0.8174621934
 20
-0.9221384501
 30
0.0
 40
0.1145833333
 41
0.0
 71
     1
 72
     1
  1
1"
  7
SLDTEXTSTYLE1
 73
     1
 44
1.0
  0
MTEXT
  5
2B6
330
2A2
100
AcDbEntity
  8
FORMAT
 62
     0
100
AcDbMText
 10
2.082537037
 20
-0.9221384501
 30
0.0
 40
0.1145833333
 41
0.0
 71
     1
 72
     1
  1
PTP-WL-LED-100
  7
SLDTEXTSTYLE1
 73
     1
 44
1.0
  0
ENDBLK
  5
2A4
330
2A2
100
AcDbEntity
  8
0
100
AcDbBlockEnd
  0
ENDSEC
  0
SECTION
  2
ENTITIES
  0
INSERT
  5
29E
330
1F
100
AcDbEntity
  8
0
  6
Continuous
 62
     7
100
AcDbBlockReference
  2
Block1
 10
1.4435338785
 20
6.8108050292
 30
0.0
  0
INSERT
  5
29F
330
1F
100
AcDbEntity
  8
0
  6
Continuous
 62
     7
100
AcDbBlockReference
  2
Block13_
 10
5.9621416084
 20
7.2110245677
 30
0.0
  0
INSERT
  5
2A0
330
1F
100
AcDbEntity
  8
0
  6
Continuous
 62
     7
100
AcDbBlockReference
  2
Block14_
 10
5.9485783898
 20
3.7833617411
 30
0.0
  0
INSERT
  5
2A1
330
1F
100
AcDbEntity
  8
0
  6
Continuous
 62
     7
100
AcDbBlockReference
  2
Block3
 10
0.4370336966
 20
0.1602847181
 30
0.0
  0
INSERT
  5
2B7
330
1F
100
AcDbEntity
  8
FORMAT
100
AcDbBlockReference
  2
SW_TABLEANNOTATION_0
 10
0.4022611988
 20
4.9732050099
 30
0.0
  0
ENDSEC
  0
SECTION
  2
OBJECTS
  0
DICTIONARY
  5
C
330
0
100
AcDbDictionary
281
     1
  3
ACAD_GROUP
350
D
  3
ACAD_LAYOUT
350
1A
  3
ACAD_MLINESTYLE
350
17
  3
ACAD_PLOTSETTINGS
350
19
  3
ACAD_PLOTSTYLENAME
350
E
  3
ACAD_SCALELIST
350
47
  0
DICTIONARY
  5
D
102
{ACAD_REACTORS
330
C
102
}
330
C
100
AcDbDictionary
281
     1
  0
DICTIONARY
  5
1A
102
{ACAD_REACTORS
330
C
102
}
330
C
100
AcDbDictionary
281
     1
  3
Layout1
350
1E
  3
Layout2
350
26
  3
Model
350
22
  0
DICTIONARY
  5
17
102
{ACAD_REACTORS
330
C
102
}
330
C
100
AcDbDictionary
281
     1
  3
Standard
350
18
  0
DICTIONARY
  5
19
102
{ACAD_REACTORS
330
C
102
}
330
C
100
AcDbDictionary
281
     1
  0
ACDBDICTIONARYWDFLT
  5
E
102
{ACAD_REACTORS
330
C
102
}
330
C
100
AcDbDictionary
281
     1
  3
Normal
350
F
100
AcDbDictionaryWithDefault
340
F
  0
DICTIONARY
  5
47
102
{ACAD_REACTORS
330
C
102
}
330
C
100
AcDbDictionary
281
     1
  3
A0
350
48
  3
A1
350
49
  3
A2
350
4A
  3
A3
350
4B
  3
A4
350
4C
  3
A5
350
4D
  3
A6
350
4E
  3
A7
350
4F
  3
A8
350
50
  3
A9
350
51
  3
B0
350
52
  3
B1
350
53
  3
B2
350
54
  3
B3
350
55
  3
B4
350
56
  3
B5
350
57
  3
B6
350
58
  3
B7
350
59
  3
B8
350
5A
  3
B9
350
5B
  3
C0
350
5C
  3
C1
350
5D
  3
C2
350
5E
  3
C3
350
5F
  3
C4
350
60
  3
C5
350
61
  3
C6
350
62
  3
C7
350
63
  3
C8
350
64
  3
C9
350
65
  3
D0
350
66
  3
D1
350
67
  3
D2
350
68
  0
LAYOUT
  5
1E
102
{ACAD_REACTORS
330
1A
102
}
330
1A
100
AcDbPlotSettings
  1

  2
none_device
  4

  6

 40
0.0
 41
0.0
 42
0.0
 43
0.0
 44
0.0
 45
0.0
 46
0.0
 47
0.0
 48
0.0
 49
0.0
140
0.0
141
0.0
142
1.0
143
1.0
 70
   688
 72
     0
 73
     0
 74
     5
  7

 75
    16
147
1.0
148
0.0
149
0.0
100
AcDbLayout
  1
Layout1
 70
     1
 71
     1
 10
0.0
 20
0.0
 11
12.0
 21
9.0
 12
0.0
 22
0.0
 32
0.0
 14
1.0000000000E+20
 24
1.0000000000E+20
 34
1.0000000000E+20
 15
-1.0000000000E+20
 25
-1.0000000000E+20
 35
-1.0000000000E+20
146
0.0
 13
0.0
 23
0.0
 33
0.0
 16
1.0
 26
0.0
 36
0.0
 17
0.0
 27
1.0
 37
0.0
 76
     0
330
1B
  0
LAYOUT
  5
26
102
{ACAD_REACTORS
330
1A
102
}
330
1A
100
AcDbPlotSettings
  1

  2
none_device
  4

  6

 40
0.0
 41
0.0
 42
0.0
 43
0.0
 44
0.0
 45
0.0
 46
0.0
 47
0.0
 48
0.0
 49
0.0
140
0.0
141
0.0
142
1.0
143
1.0
 70
   688
 72
     0
 73
     0
 74
     5
  7

 75
    16
147
1.0
148
0.0
149
0.0
100
AcDbLayout
  1
Layout2
 70
     1
 71
     2
 10
0.0
 20
0.0
 11
0.0
 21
0.0
 12
0.0
 22
0.0
 32
0.0
 14
0.0
 24
0.0
 34
0.0
 15
0.0
 25
0.0
 35
0.0
146
0.0
 13
0.0
 23
0.0
 33
0.0
 16
1.0
 26
0.0
 36
0.0
 17
0.0
 27
1.0
 37
0.0
 76
     0
330
23
  0
LAYOUT
  5
22
102
{ACAD_REACTORS
330
1A
102
}
330
1A
100
AcDbPlotSettings
  1

  2
none_device
  4
Letter_(8.50_x_11.00_Inches)
  6

 40
6.35
 41
6.35
 42
6.35000508
 43
6.35000508
 44
215.9
 45
279.4
 46
0.0
 47
0.0
 48
0.0
 49
0.0
140
0.0
141
0.0
142
1.0
143
1.0
 70
  1712
 72
     0
 73
     0
 74
     0
  7

 75
     0
147
1.0
148
0.0
149
0.0
100
AcDbLayout
  1
Model
 70
     1
 71
     0
 10
0.0
 20
0.0
 11
16.5354330709
 21
11.6929133858
 12
0.0
 22
0.0
 32
0.0
 14
0.0
 24
0.0
 34
0.0
 15
16.5354330709
 25
11.6929133858
 35
0.0
146
0.0
 13
0.0
 23
0.0
 33
0.0
 16
1.0
 26
0.0
 36
0.0
 17
0.0
 27
1.0
 37
0.0
 76
     0
330
1F
331
29
  0
MLINESTYLE
  5
18
102
{ACAD_REACTORS
330
17
102
}
330
17
100
AcDbMlineStyle
  2
Standard
 70
     0
  3

 62
   256
 51
90.0
 52
90.0
 71
     2
 49
0.5
 62
   256
  6
BYLAYER
 49
-0.5
 62
   256
  6
BYLAYER
  0
ACDBPLACEHOLDER
  5
F
102
{ACAD_REACTORS
330
E
102
}
330
E
  0
SCALE
  5
48
102
{ACAD_REACTORS
330
47
102
}
330
47
100
AcDbScale
 70
     0
300
1:1
140
1.0
141
1.0
290
     1
  0
SCALE
  5
49
102
{ACAD_REACTORS
330
47
102
}
330
47
100
AcDbScale
 70
     0
300
1:2
140
1.0
141
2.0
290
     0
  0
SCALE
  5
4A
102
{ACAD_REACTORS
330
47
102
}
330
47
100
AcDbScale
 70
     0
300
1:4
140
1.0
141
4.0
290
     0
  0
SCALE
  5
4B
102
{ACAD_REACTORS
330
47
102
}
330
47
100
AcDbScale
 70
     0
300
1:5
140
1.0
141
5.0
290
     0
  0
SCALE
  5
4C
102
{ACAD_REACTORS
330
47
102
}
330
47
100
AcDbScale
 70
     0
300
1:8
140
1.0
141
8.0
290
     0
  0
SCALE
  5
4D
102
{ACAD_REACTORS
330
47
102
}
330
47
100
AcDbScale
 70
     0
300
1:10
140
1.0
141
10.0
290
     0
  0
SCALE
  5
4E
102
{ACAD_REACTORS
330
47
102
}
330
47
100
AcDbScale
 70
     0
300
1:16
140
1.0
141
16.0
290
     0
  0
SCALE
  5
4F
102
{ACAD_REACTORS
330
47
102
}
330
47
100
AcDbScale
 70
     0
300
1:20
140
1.0
141
20.0
290
     0
  0
SCALE
  5
50
102
{ACAD_REACTORS
330
47
102
}
330
47
100
AcDbScale
 70
     0
300
1:30
140
1.0
141
30.0
290
     0
  0
SCALE
  5
51
102
{ACAD_REACTORS
330
47
102
}
330
47
100
AcDbScale
 70
     0
300
1:40
140
1.0
141
40.0
290
     0
  0
SCALE
  5
52
102
{ACAD_REACTORS
330
47
102
}
330
47
100
AcDbScale
 70
     0
300
1:50
140
1.0
141
50.0
290
     0
  0
SCALE
  5
53
102
{ACAD_REACTORS
330
47
102
}
330
47
100
AcDbScale
 70
     0
300
1:100
140
1.0
141
100.0
290
     0
  0
SCALE
  5
54
102
{ACAD_REACTORS
330
47
102
}
330
47
100
AcDbScale
 70
     0
300
2:1
140
2.0
141
1.0
290
     0
  0
SCALE
  5
55
102
{ACAD_REACTORS
330
47
102
}
330
47
100
AcDbScale
 70
     0
300
4:1
140
4.0
141
1.0
290
     0
  0
SCALE
  5
56
102
{ACAD_REACTORS
330
47
102
}
330
47
100
AcDbScale
 70
     0
300
8:1
140
8.0
141
1.0
290
     0
  0
SCALE
  5
57
102
{ACAD_REACTORS
330
47
102
}
330
47
100
AcDbScale
 70
     0
300
10:1
140
10.0
141
1.0
290
     0
  0
SCALE
  5
58
102
{ACAD_REACTORS
330
47
102
}
330
47
100
AcDbScale
 70
     0
300
100:1
140
100.0
141
1.0
290
     0
  0
SCALE
  5
59
102
{ACAD_REACTORS
330
47
102
}
330
47
100
AcDbScale
 70
     0
300
1/128" = 1'-0"
140
0.0078125
141
12.0
290
     0
  0
SCALE
  5
5A
102
{ACAD_REACTORS
330
47
102
}
330
47
100
AcDbScale
 70
     0
300
1/64" = 1'-0"
140
0.015625
141
12.0
290
     0
  0
SCALE
  5
5B
102
{ACAD_REACTORS
330
47
102
}
330
47
100
AcDbScale
 70
     0
300
1/32" = 1'-0"
140
0.03125
141
12.0
290
     0
  0
SCALE
  5
5C
102
{ACAD_REACTORS
330
47
102
}
330
47
100
AcDbScale
 70
     0
300
1/16" = 1'-0"
140
0.0625
141
12.0
290
     0
  0
SCALE
  5
5D
102
{ACAD_REACTORS
330
47
102
}
330
47
100
AcDbScale
 70
     0
300
3/32" = 1'-0"
140
0.09375
141
12.0
290
     0
  0
SCALE
  5
5E
102
{ACAD_REACTORS
330
47
102
}
330
47
100
AcDbScale
 70
     0
300
1/8" = 1'-0"
140
0.125
141
12.0
290
     0
  0
SCALE
  5
5F
102
{ACAD_REACTORS
330
47
102
}
330
47
100
AcDbScale
 70
     0
300
3/16" = 1'-0"
140
0.1875
141
12.0
290
     0
  0
SCALE
  5
60
102
{ACAD_REACTORS
330
47
102
}
330
47
100
AcDbScale
 70
     0
300
1/4" = 1'-0"
140
0.25
141
12.0
290
     0
  0
SCALE
  5
61
102
{ACAD_REACTORS
330
47
102
}
330
47
100
AcDbScale
 70
     0
300
3/8" = 1'-0"
140
0.375
141
12.0
290
     0
  0
SCALE
  5
62
102
{ACAD_REACTORS
330
47
102
}
330
47
100
AcDbScale
 70
     0
300
1/2" = 1'-0"
140
0.5
141
12.0
290
     0
  0
SCALE
  5
63
102
{ACAD_REACTORS
330
47
102
}
330
47
100
AcDbScale
 70
     0
300
3/4" = 1'-0"
140
0.75
141
12.0
290
     0
  0
SCALE
  5
64
102
{ACAD_REACTORS
330
47
102
}
330
47
100
AcDbScale
 70
     0
300
1" = 1'-0"
140
1.0
141
12.0
290
     0
  0
SCALE
  5
65
102
{ACAD_REACTORS
330
47
102
}
330
47
100
AcDbScale
 70
     0
300
1-1/2" = 1'-0"
140
1.5
141
12.0
290
     0
  0
SCALE
  5
66
102
{ACAD_REACTORS
330
47
102
}
330
47
100
AcDbScale
 70
     0
300
3" = 1'-0"
140
3.0
141
12.0
290
     0
  0
SCALE
  5
67
102
{ACAD_REACTORS
330
47
102
}
330
47
100
AcDbScale
 70
     0
300
6" = 1'-0"
140
6.0
141
12.0
290
     0
  0
SCALE
  5
68
102
{ACAD_REACTORS
330
47
102
}
330
47
100
AcDbScale
 70
     0
300
1'-0" = 1'-0"
140
12.0
141
12.0
290
     0
  0
ENDSEC
  0
EOF
