  0
SECTION
  2
HEADER
  9
$ACADVER
  1
AC1015
  9
$ACADMAINTVER
 70
     6
  9
$DWGCODEPAGE
  3
ANSI_1251
  9
$INSBASE
 10
0.0
 20
0.0
 30
0.0
  9
$EXTMIN
 10
0.0
 20
0.0
 30
0.0
  9
$EXTMAX
 10
16.5354330709
 20
11.6929133858
 30
0.0
  9
$LIMMIN
 10
0.0
 20
0.0
  9
$LIMMAX
 10
16.5354330709
 20
11.6929133858
  9
$ORTHOMODE
 70
     0
  9
$REGENMODE
 70
     1
  9
$FILLMODE
 70
     1
  9
$QTEXTMODE
 70
     0
  9
$MIRRTEXT
 70
     1
  9
$LTSCALE
 40
1.0
  9
$ATTMODE
 70
     1
  9
$TEXTSIZE
 40
0.1377952756
  9
$TRACEWID
 40
0.05
  9
$TEXTSTYLE
  7
Standard
  9
$CLAYER
  8
0
  9
$CELTYPE
  6
ByLayer
  9
$CECOLOR
 62
   256
  9
$CELTSCALE
 40
1.0
  9
$DISPSILH
 70
     0
  9
$DIMSCALE
 40
1.0
  9
$DIMASZ
 40
0.13
  9
$DIMEXO
 40
0.1
  9
$DIMDLI
 40
0.38
  9
$DIMRND
 40
0.0
  9
$DIMDLE
 40
0.0
  9
$DIMEXE
 40
0.0393700787
  9
$DIMTP
 40
0.0
  9
$DIMTM
 40
0.0
  9
$DIMTXT
 40
0.1377952756
  9
$DIMCEN
 40
0.09
  9
$DIMTSZ
 40
0.0
  9
$DIMTOL
 70
     0
  9
$DIMLIM
 70
     0
  9
$DIMTIH
 70
     1
  9
$DIMTOH
 70
     1
  9
$DIMSE1
 70
     0
  9
$DIMSE2
 70
     0
  9
$DIMTAD
 70
     1
  9
$DIMZIN
 70
     0
  9
$DIMBLK
  1

  9
$DIMASO
 70
     1
  9
$DIMSHO
 70
     1
  9
$DIMPOST
  1

  9
$DIMAPOST
  1

  9
$DIMALT
 70
     0
  9
$DIMALTD
 70
     2
  9
$DIMALTF
 40
25.4
  9
$DIMLFAC
 40
1.0
  9
$DIMTOFL
 70
     0
  9
$DIMTVP
 40
0.0
  9
$DIMTIX
 70
     0
  9
$DIMSOXD
 70
     0
  9
$DIMSAH
 70
     0
  9
$DIMBLK1
  1

  9
$DIMBLK2
  1

  9
$DIMSTYLE
  2
Standard
  9
$DIMCLRD
 70
     0
  9
$DIMCLRE
 70
     0
  9
$DIMCLRT
 70
     0
  9
$DIMTFAC
 40
1.0
  9
$DIMGAP
 40
0.06
  9
$DIMJUST
 70
     0
  9
$DIMSD1
 70
     0
  9
$DIMSD2
 70
     0
  9
$DIMTOLJ
 70
     1
  9
$DIMTZIN
 70
     0
  9
$DIMALTZ
 70
     0
  9
$DIMALTTZ
 70
     0
  9
$DIMUPT
 70
     0
  9
$DIMDEC
 70
     2
  9
$DIMTDEC
 70
     2
  9
$DIMALTU
 70
     2
  9
$DIMALTTD
 70
     2
  9
$DIMTXSTY
  7
Standard
  9
$DIMAUNIT
 70
     0
  9
$DIMADEC
 70
     2
  9
$DIMALTRND
 40
0.0
  9
$DIMAZIN
 70
     0
  9
$DIMDSEP
 70
    46
  9
$DIMATFIT
 70
     3
  9
$DIMFRAC
 70
     0
  9
$DIMLDRBLK
  1

  9
$DIMLUNIT
 70
     2
  9
$DIMLWD
 70
    -2
  9
$DIMLWE
 70
    -2
  9
$DIMTMOVE
 70
     0
  9
$LUNITS
 70
     2
  9
$LUPREC
 70
     2
  9
$SKETCHINC
 40
0.1
  9
$FILLETRAD
 40
0.5
  9
$AUNITS
 70
     0
  9
$AUPREC
 70
     2
  9
$MENU
  1
.
  9
$ELEVATION
 40
0.0
  9
$PELEVATION
 40
0.0
  9
$THICKNESS
 40
0.0
  9
$LIMCHECK
 70
     0
  9
$CHAMFERA
 40
0.0
  9
$CHAMFERB
 40
0.0
  9
$CHAMFERC
 40
0.0
  9
$CHAMFERD
 40
0.0
  9
$SKPOLY
 70
     0
  9
$TDCREATE
 40
2458207.764708206
  9
$TDUCREATE
 40
2458207.59804154
  9
$TDUPDATE
 40
2458207.764710127
  9
$TDUUPDATE
 40
2458207.598043461
  9
$TDINDWG
 40
0.0000000116
  9
$TDUSRTIMER
 40
0.0000000116
  9
$USRTIMER
 70
     1
  9
$ANGBASE
 50
0.0
  9
$ANGDIR
 70
     0
  9
$PDMODE
 70
     0
  9
$PDSIZE
 40
-1.0
  9
$PLINEWID
 40
0.0
  9
$SPLFRAME
 70
     0
  9
$SPLINETYPE
 70
     6
  9
$SPLINESEGS
 70
     8
  9
$HANDSEED
  5
1E1
  9
$SURFTAB1
 70
     6
  9
$SURFTAB2
 70
     6
  9
$SURFTYPE
 70
     6
  9
$SURFU
 70
     6
  9
$SURFV
 70
     6
  9
$UCSBASE
  2

  9
$UCSNAME
  2

  9
$UCSORG
 10
0.0
 20
0.0
 30
0.0
  9
$UCSXDIR
 10
1.0
 20
0.0
 30
0.0
  9
$UCSYDIR
 10
0.0
 20
1.0
 30
0.0
  9
$UCSORTHOREF
  2

  9
$UCSORTHOVIEW
 70
     0
  9
$UCSORGTOP
 10
0.0
 20
0.0
 30
0.0
  9
$UCSORGBOTTOM
 10
0.0
 20
0.0
 30
0.0
  9
$UCSORGLEFT
 10
0.0
 20
0.0
 30
0.0
  9
$UCSORGRIGHT
 10
0.0
 20
0.0
 30
0.0
  9
$UCSORGFRONT
 10
0.0
 20
0.0
 30
0.0
  9
$UCSORGBACK
 10
0.0
 20
0.0
 30
0.0
  9
$PUCSBASE
  2

  9
$PUCSNAME
  2

  9
$PUCSORG
 10
0.0
 20
0.0
 30
0.0
  9
$PUCSXDIR
 10
1.0
 20
0.0
 30
0.0
  9
$PUCSYDIR
 10
0.0
 20
1.0
 30
0.0
  9
$PUCSORTHOREF
  2

  9
$PUCSORTHOVIEW
 70
     0
  9
$PUCSORGTOP
 10
0.0
 20
0.0
 30
0.0
  9
$PUCSORGBOTTOM
 10
0.0
 20
0.0
 30
0.0
  9
$PUCSORGLEFT
 10
0.0
 20
0.0
 30
0.0
  9
$PUCSORGRIGHT
 10
0.0
 20
0.0
 30
0.0
  9
$PUCSORGFRONT
 10
0.0
 20
0.0
 30
0.0
  9
$PUCSORGBACK
 10
0.0
 20
0.0
 30
0.0
  9
$USERI1
 70
     0
  9
$USERI2
 70
     0
  9
$USERI3
 70
     0
  9
$USERI4
 70
     0
  9
$USERI5
 70
     0
  9
$USERR1
 40
0.0
  9
$USERR2
 40
0.0
  9
$USERR3
 40
0.0
  9
$USERR4
 40
0.0
  9
$USERR5
 40
0.0
  9
$WORLDVIEW
 70
     1
  9
$SHADEDGE
 70
     3
  9
$SHADEDIF
 70
    70
  9
$TILEMODE
 70
     1
  9
$MAXACTVP
 70
    64
  9
$PINSBASE
 10
0.0
 20
0.0
 30
0.0
  9
$PLIMCHECK
 70
     0
  9
$PEXTMIN
 10
1.0000000000E+20
 20
1.0000000000E+20
 30
1.0000000000E+20
  9
$PEXTMAX
 10
-1.0000000000E+20
 20
-1.0000000000E+20
 30
-1.0000000000E+20
  9
$PLIMMIN
 10
0.0
 20
0.0
  9
$PLIMMAX
 10
12.0
 20
9.0
  9
$UNITMODE
 70
     0
  9
$VISRETAIN
 70
     1
  9
$PLINEGEN
 70
     0
  9
$PSLTSCALE
 70
     1
  9
$TREEDEPTH
 70
  3020
  9
$CMLSTYLE
  2
Standard
  9
$CMLJUST
 70
     0
  9
$CMLSCALE
 40
1.0
  9
$PROXYGRAPHICS
 70
     1
  9
$MEASUREMENT
 70
     0
  9
$CELWEIGHT
370
    -1
  9
$ENDCAPS
280
     0
  9
$JOINSTYLE
280
     0
  9
$LWDISPLAY
290
     1
  9
$INSUNITS
 70
     1
  9
$HYPERLINKBASE
  1

  9
$STYLESHEET
  1

  9
$XEDIT
290
     1
  9
$CEPSNTYPE
380
     0
  9
$PSTYLEMODE
290
     1
  9
$FINGERPRINTGUID
  2
{783BB3E2-5E14-465A-AB63-54BBE5539CDB}
  9
$VERSIONGUID
  2
{FAEB1C32-E019-11D5-929B-00C0DF256EC4}
  9
$EXTNAMES
290
     1
  9
$PSVPSCALE
 40
0.0
  9
$OLESTARTUP
290
     0
  0
ENDSEC
  0
SECTION
  2
CLASSES
  0
CLASS
  1
ACDBDICTIONARYWDFLT
  2
AcDbDictionaryWithDefault
  3
ObjectDBX Classes
 90
        0
280
     0
281
     0
  0
CLASS
  1
VISUALSTYLE
  2
AcDbVisualStyle
  3
ObjectDBX Classes
 90
     4095
280
     0
281
     0
  0
CLASS
  1
MATERIAL
  2
AcDbMaterial
  3
ObjectDBX Classes
 90
     1153
280
     0
281
     0
  0
CLASS
  1
SCALE
  2
AcDbScale
  3
ObjectDBX Classes
 90
     1153
280
     0
281
     0
  0
CLASS
  1
TABLESTYLE
  2
AcDbTableStyle
  3
ObjectDBX Classes
 90
     4095
280
     0
281
     0
  0
CLASS
  1
MLEADERSTYLE
  2
AcDbMLeaderStyle
  3
ACDB_MLEADERSTYLE_CLASS
 90
     4095
280
     0
281
     0
  0
CLASS
  1
SUN
  2
AcDbSun
  3
SCENEOE
 90
     1153
280
     0
281
     0
  0
CLASS
  1
ACDBPLACEHOLDER
  2
AcDbPlaceHolder
  3
ObjectDBX Classes
 90
        0
280
     0
281
     0
  0
CLASS
  1
LAYOUT
  2
AcDbLayout
  3
ObjectDBX Classes
 90
        0
280
     0
281
     0
  0
ENDSEC
  0
SECTION
  2
TABLES
  0
TABLE
  2
VPORT
  5
8
330
0
100
AcDbSymbolTable
 70
     1
  0
VPORT
  5
29
330
8
100
AcDbSymbolTableRecord
100
AcDbViewportTableRecord
  2
*Active
 70
     0
 10
0.0
 20
0.0
 11
1.0
 21
1.0
 12
8.2677165354
 22
5.8464566929
 13
0.0
 23
0.0
 14
0.5
 24
0.5
 15
0.5
 25
0.5
 16
0.0
 26
0.0
 36
1.0
 17
0.0
 27
0.0
 37
0.0
 40
11.6929133858
 41
1.4141414141
 42
50.0
 43
0.0
 44
0.0
 50
0.0
 51
0.0
 71
     0
 72
  2000
 73
     1
 74
     3
 75
     0
 76
     0
 77
     0
 78
     0
281
     0
 65
     1
110
0.0
120
0.0
130
0.0
111
1.0
121
0.0
131
0.0
112
0.0
122
1.0
132
0.0
 79
     0
146
0.0
  0
ENDTAB
  0
TABLE
  2
LTYPE
  5
5
330
0
100
AcDbSymbolTable
 70
     6
  0
LTYPE
  5
14
330
5
100
AcDbSymbolTableRecord
100
AcDbLinetypeTableRecord
  2
ByBlock
 70
     0
  3

 72
    65
 73
     0
 40
0.0
  0
LTYPE
  5
15
330
5
100
AcDbSymbolTableRecord
100
AcDbLinetypeTableRecord
  2
ByLayer
 70
     0
  3

 72
    65
 73
     0
 40
0.0
  0
LTYPE
  5
16
330
5
100
AcDbSymbolTableRecord
100
AcDbLinetypeTableRecord
  2
Continuous
 70
     0
  3
Solid line
 72
    65
 73
     0
 40
0.0
  0
LTYPE
  5
6E
330
5
100
AcDbSymbolTableRecord
100
AcDbLinetypeTableRecord
  2
HIDDEN
 70
     0
  3
Hidden __ __ __ __ __ __ __ __ __ __ __ __ __ __
 72
    65
 73
     2
 40
0.075
 49
0.05
 74
     0
 49
-0.025
 74
     0
  0
LTYPE
  5
6F
330
5
100
AcDbSymbolTableRecord
100
AcDbLinetypeTableRecord
  2
PHANTOM
 70
     0
  3
Phantom ______  __  __  ______  __  __  ______
 72
    65
 73
     6
 40
0.5
 49
0.25
 74
     0
 49
-0.05
 74
     0
 49
0.05
 74
     0
 49
-0.05
 74
     0
 49
0.05
 74
     0
 49
-0.05
 74
     0
  0
LTYPE
  5
70
330
5
100
AcDbSymbolTableRecord
100
AcDbLinetypeTableRecord
  2
CENTER
 70
     0
  3
Center ____ _ ____ _ ____ _ ____ _ ____ _ ____
 72
    65
 73
     4
 40
0.4
 49
0.25
 74
     0
 49
-0.05
 74
     0
 49
0.05
 74
     0
 49
-0.05
 74
     0
  0
LTYPE
  5
71
330
5
100
AcDbSymbolTableRecord
100
AcDbLinetypeTableRecord
  2
CENTERX2
 70
     0
  3
Center (2x) ________  __  ________  __  _____
 72
    65
 73
     4
 40
0.8
 49
0.5
 74
     0
 49
-0.1
 74
     0
 49
0.1
 74
     0
 49
-0.1
 74
     0
  0
LTYPE
  5
72
330
5
100
AcDbSymbolTableRecord
100
AcDbLinetypeTableRecord
  2
DOT2
 70
     0
  3
Dot (.5x) ........................................
 72
    65
 73
     2
 40
0.025
 49
0.0
 74
     0
 49
-0.025
 74
     0
  0
ENDTAB
  0
TABLE
  2
LAYER
  5
2
330
0
100
AcDbSymbolTable
 70
     5
  0
LAYER
  5
10
330
2
100
AcDbSymbolTableRecord
100
AcDbLayerTableRecord
  2
0
 70
     0
 62
     7
  6
Continuous
370
    -3
390
F
  0
LAYER
  5
73
330
2
100
AcDbSymbolTableRecord
100
AcDbLayerTableRecord
  2
FORMAT
 70
     0
 62
     7
  6
Continuous
370
    -3
390
F
  0
LAYER
  5
74
330
2
100
AcDbSymbolTableRecord
100
AcDbLayerTableRecord
  2
SLD-0
 70
     0
 62
   179
  6
Continuous
370
    -3
390
F
  0
LAYER
  5
75
330
2
100
AcDbSymbolTableRecord
100
AcDbLayerTableRecord
  2
AM_6
 70
     0
 62
     2
  6
Continuous
370
    35
390
F
  0
LAYER
  5
76
330
2
100
AcDbSymbolTableRecord
100
AcDbLayerTableRecord
  2
THINM
 70
     0
 62
     6
  6
Continuous
370
    -3
390
F
  0
ENDTAB
  0
TABLE
  2
STYLE
  5
3
330
0
100
AcDbSymbolTable
 70
     4
  0
STYLE
  5
11
330
3
100
AcDbSymbolTableRecord
100
AcDbTextStyleTableRecord
  2
Standard
 70
     0
 40
0.0
 41
1.0
 50
0.0
 71
     0
 42
0.1377952756
  3
txt
  4

  0
STYLE
  5
7D
330
3
100
AcDbSymbolTableRecord
100
AcDbTextStyleTableRecord
  2
SLDTEXTSTYLE0
 70
     0
 40
0.0
 41
0.605
 50
0.0
 71
     0
 42
0.1377952756
  3
TXT
  4

  0
STYLE
  5
12E
330
3
100
AcDbSymbolTableRecord
100
AcDbTextStyleTableRecord
  2
SLDTEXTSTYLE1
 70
     0
 40
0.0
 41
0.75
 50
0.0
 71
     0
 42
0.1377952756
  3
TXT
  4

  0
STYLE
  5
132
330
3
100
AcDbSymbolTableRecord
100
AcDbTextStyleTableRecord
  2
SLDTEXTSTYLE2
 70
     0
 40
0.0
 41
0.65
 50
0.0
 71
     0
 42
0.1377952756
  3
TXT
  4

  0
ENDTAB
  0
TABLE
  2
VIEW
  5
6
330
0
100
AcDbSymbolTable
 70
     0
  0
ENDTAB
  0
TABLE
  2
UCS
  5
7
330
0
100
AcDbSymbolTable
 70
     0
  0
ENDTAB
  0
TABLE
  2
APPID
  5
9
330
0
100
AcDbSymbolTable
 70
     1
  0
APPID
  5
12
330
9
100
AcDbSymbolTableRecord
100
AcDbRegAppTableRecord
  2
ACAD
 70
     0
  0
ENDTAB
  0
TABLE
  2
DIMSTYLE
  5
A
330
0
100
AcDbSymbolTable
 70
     1
100
AcDbDimStyleTable
  0
DIMSTYLE
105
27
330
A
100
AcDbSymbolTableRecord
100
AcDbDimStyleTableRecord
  2
Standard
 70
     0
178
     0
340
11
  0
ENDTAB
  0
TABLE
  2
BLOCK_RECORD
  5
1
330
0
100
AcDbSymbolTable
 70
     9
  0
BLOCK_RECORD
  5
1F
330
1
100
AcDbSymbolTableRecord
100
AcDbBlockTableRecord
  2
*Model_Space
340
22
  0
BLOCK_RECORD
  5
1B
330
1
100
AcDbSymbolTableRecord
100
AcDbBlockTableRecord
  2
*Paper_Space
340
1E
  0
BLOCK_RECORD
  5
23
330
1
100
AcDbSymbolTableRecord
100
AcDbBlockTableRecord
  2
*Paper_Space0
340
26
  0
BLOCK_RECORD
  5
77
330
1
100
AcDbSymbolTableRecord
100
AcDbBlockTableRecord
  2
Block3
340
0
102
{BLKREFS
331
1C7
102
}
  0
BLOCK_RECORD
  5
7A
330
1
100
AcDbSymbolTableRecord
100
AcDbBlockTableRecord
  2
SW_NOTE_0
340
0
102
{BLKREFS
331
82
102
}
  0
BLOCK_RECORD
  5
83
330
1
100
AcDbSymbolTableRecord
100
AcDbBlockTableRecord
  2
SW_NOTE_1
340
0
102
{BLKREFS
331
89
102
}
  0
BLOCK_RECORD
  5
8A
330
1
100
AcDbSymbolTableRecord
100
AcDbBlockTableRecord
  2
Block9
340
0
102
{BLKREFS
331
1C6
102
}
  0
BLOCK_RECORD
  5
F6
330
1
100
AcDbSymbolTableRecord
100
AcDbBlockTableRecord
  2
Block1
340
0
102
{BLKREFS
331
1C8
102
}
  0
BLOCK_RECORD
  5
136
330
1
100
AcDbSymbolTableRecord
100
AcDbBlockTableRecord
  2
Block13_
340
0
102
{BLKREFS
331
1C9
102
}
  0
BLOCK_RECORD
  5
189
330
1
100
AcDbSymbolTableRecord
100
AcDbBlockTableRecord
  2
Block14_
340
0
102
{BLKREFS
331
1CA
102
}
  0
BLOCK_RECORD
  5
1CB
330
1
100
AcDbSymbolTableRecord
100
AcDbBlockTableRecord
  2
SW_TABLEANNOTATION_0
340
0
102
{BLKREFS
331
1E0
102
}
  0
ENDTAB
  0
ENDSEC
  0
SECTION
  2
BLOCKS
  0
BLOCK
  5
20
330
1F
100
AcDbEntity
  8
0
100
AcDbBlockBegin
  2
*Model_Space
 70
     0
 10
0.0
 20
0.0
 30
0.0
  3
*Model_Space
  1

  0
ENDBLK
  5
21
330
1F
100
AcDbEntity
  8
0
100
AcDbBlockEnd
  0
BLOCK
  5
1C
330
1B
100
AcDbEntity
 67
     1
  8
0
100
AcDbBlockBegin
  2
*Paper_Space
 70
     0
 10
0.0
 20
0.0
 30
0.0
  3
*Paper_Space
  1

  0
ENDBLK
  5
1D
330
1B
100
AcDbEntity
 67
     1
  8
0
100
AcDbBlockEnd
  0
BLOCK
  5
24
330
23
100
AcDbEntity
  8
0
100
AcDbBlockBegin
  2
*Paper_Space0
 70
     0
 10
0.0
 20
0.0
 30
0.0
  3
*Paper_Space0
  1

  0
ENDBLK
  5
25
330
23
100
AcDbEntity
  8
0
100
AcDbBlockEnd
  0
BLOCK
  5
78
330
77
100
AcDbEntity
  8
0
100
AcDbBlockBegin
  2
Block3
 70
     0
 10
0.0
 20
0.0
 30
0.0
  3
Block3
  1

  0
INSERT
  5
82
330
77
100
AcDbEntity
  8
FORMAT
 62
     7
100
AcDbBlockReference
  2
SW_NOTE_0
 10
12.5472656001
 20
0.7426152712
 30
0.0
  0
INSERT
  5
89
330
77
100
AcDbEntity
  8
FORMAT
 62
     7
100
AcDbBlockReference
  2
SW_NOTE_1
 10
2.4173866861
 20
0.6725994797
 30
0.0
  0
INSERT
  5
1C6
330
77
100
AcDbEntity
  8
0
  6
Continuous
 62
     7
100
AcDbBlockReference
  2
Block9
 10
0.0
 20
0.0323394931
 30
0.0
  0
ENDBLK
  5
79
330
77
100
AcDbEntity
  8
0
100
AcDbBlockEnd
  0
BLOCK
  5
7B
330
7A
100
AcDbEntity
  8
0
100
AcDbBlockBegin
  2
SW_NOTE_0
 70
     0
 10
0.0
 20
0.0
 30
0.0
  3
SW_NOTE_0
  1

  0
MTEXT
  5
7E
330
7A
100
AcDbEntity
  8
FORMAT
 62
     0
100
AcDbMText
 10
2.9345703125
 20
0.2014168343
 30
0.0
 40
0.15625
 41
0.0
 71
     3
 72
     1
  1
Panel L Edge With Lip - Details
  7
SLDTEXTSTYLE0
 73
     1
 44
1.0
  0
MTEXT
  5
7F
330
7A
100
AcDbEntity
  8
FORMAT
 62
     0
100
AcDbMText
 10
2.9389468164
 20
-0.0462865908
 30
0.0
 40
0.15625
 41
0.0
 71
     3
 72
     1
  1
Available for 1/2", 3/4" & 1" Panels
  7
SLDTEXTSTYLE0
 73
     1
 44
1.0
  0
MTEXT
  5
80
330
7A
100
AcDbEntity
  8
FORMAT
 62
     0
100
AcDbMText
 10
2.9557288702
 20
-0.2939899977
 30
0.0
 40
0.15625
 41
0.0
 71
     3
 72
     1
  1
Custom Anodized and Powder Coated Finishes Available
  7
SLDTEXTSTYLE0
 73
     1
 44
1.0
  0
MTEXT
  5
81
330
7A
100
AcDbEntity
  8
FORMAT
 62
     0
100
AcDbMText
 10
2.9116027702
 20
-0.5416934045
 30
0.0
 40
0.15625
 41
0.0
 71
     3
 72
     1
  1
DWPanels.com
  7
SLDTEXTSTYLE0
 73
     1
 44
1.0
  0
ENDBLK
  5
7C
330
7A
100
AcDbEntity
  8
0
100
AcDbBlockEnd
  0
BLOCK
  5
84
330
83
100
AcDbEntity
  8
0
100
AcDbBlockBegin
  2
SW_NOTE_1
 70
     0
 10
0.0
 20
0.0
 30
0.0
  3
SW_NOTE_1
  1

  0
MTEXT
  5
86
330
83
100
AcDbEntity
  8
FORMAT
 62
     0
100
AcDbMText
 10
0.0
 20
0.2417002012
 30
0.0
 40
0.1875
 41
0.0
 71
     1
 72
     1
  1
Decorative
  7
SLDTEXTSTYLE0
 73
     1
 44
1.0
  0
MTEXT
  5
87
330
83
100
AcDbEntity
  8
FORMAT
 62
     0
100
AcDbMText
 10
0.0
 20
-0.047669881
 30
0.0
 40
0.1875
 41
0.0
 71
     1
 72
     1
  1
Wall
  7
SLDTEXTSTYLE0
 73
     1
 44
1.0
  0
MTEXT
  5
88
330
83
100
AcDbEntity
  8
FORMAT
 62
     0
100
AcDbMText
 10
0.0
 20
-0.3370399631
 30
0.0
 40
0.1875
 41
0.0
 71
     1
 72
     1
  1
Panels     Systems
  7
SLDTEXTSTYLE0
 73
     1
 44
1.0
  0
ENDBLK
  5
85
330
83
100
AcDbEntity
  8
0
100
AcDbBlockEnd
  0
BLOCK
  5
8B
330
8A
100
AcDbEntity
  8
0
100
AcDbBlockBegin
  2
Block9
 70
     0
 10
0.0
 20
0.0
 30
0.0
  3
Block9
  1

  0
LINE
  5
8D
330
8A
100
AcDbEntity
  8
0
  6
Continuous
 62
     7
370
    18
100
AcDbLine
 10
0.0
 20
1.039171875
 30
0.0
 11
15.4944999933
 21
1.039171875
 31
0.0
  0
SPLINE
  5
8E
330
8A
100
AcDbEntity
  8
0
  6
Continuous
 62
     8
370
     0
100
AcDbSpline
210
0.0
220
0.0
230
1.0
 70
    24
 71
     3
 72
     8
 73
     4
 74
     0
 42
0.000000001
 43
0.00000001
 40
37.0
 40
37.0
 40
37.0
 40
37.0
 40
38.0
 40
38.0
 40
38.0
 40
38.0
 10
1.771964220772605
 20
0.0264862735488503
 30
0.0
 10
1.771964220772605
 20
0.1159242183039175
 30
0.0
 10
1.771964220772605
 20
0.2037081062473845
 30
0.0
 10
1.771964220772605
 20
0.2944888147063214
 30
0.0
  0
SPLINE
  5
8F
330
8A
100
AcDbEntity
  8
0
  6
Continuous
 62
     8
370
     0
100
AcDbSpline
210
0.0
220
0.0
230
1.0
 70
    24
 71
     3
 72
     8
 73
     4
 74
     0
 42
0.000000001
 43
0.00000001
 40
36.0
 40
36.0
 40
36.0
 40
36.0
 40
37.0
 40
37.0
 40
37.0
 40
37.0
 10
1.624299249855472
 20
0.0264862735488503
 30
0.0
 10
1.674864746341027
 20
0.0264862735488503
 30
0.0
 10
1.722299791426324
 20
0.0264862735488503
 30
0.0
 10
1.771964220772605
 20
0.0264862735488503
 30
0.0
  0
SPLINE
  5
90
330
8A
100
AcDbEntity
  8
0
  6
Continuous
 62
     8
370
     0
100
AcDbSpline
210
0.0
220
0.0
230
1.0
 70
    24
 71
     3
 72
     8
 73
     4
 74
     0
 42
0.000000001
 43
0.00000001
 40
35.0
 40
35.0
 40
35.0
 40
35.0
 40
36.0
 40
36.0
 40
36.0
 40
36.0
 10
1.624299249855472
 20
0.3947778716284157
 30
0.0
 10
1.624299249855472
 20
0.2719112658129299
 30
0.0
 10
1.624299249855472
 20
0.1490446215756984
 30
0.0
 10
1.624299249855472
 20
0.0264862735488503
 30
0.0
  0
SPLINE
  5
91
330
8A
100
AcDbEntity
  8
0
  6
Continuous
 62
     8
370
     0
100
AcDbSpline
210
0.0
220
0.0
230
1.0
 70
     8
 71
     3
 72
     8
 73
     4
 74
     0
 42
0.000000001
 43
0.00000001
 40
34.0
 40
34.0
 40
34.0
 40
34.0
 40
35.0
 40
35.0
 40
35.0
 40
35.0
 10
1.617341837371248
 20
0.3961420746749176
 30
0.0
 10
1.619660974865984
 20
0.3956873147115886
 30
0.0
 10
1.621980112360718
 20
0.3952325931699642
 30
0.0
 10
1.624299249855472
 20
0.3947778716284157
 30
0.0
  0
SPLINE
  5
92
330
8A
100
AcDbEntity
  8
0
  6
Continuous
 62
     8
370
     0
100
AcDbSpline
210
0.0
220
0.0
230
1.0
 70
     8
 71
     3
 72
     8
 73
     4
 74
     0
 42
0.000000001
 43
0.00000001
 40
33.0
 40
33.0
 40
33.0
 40
33.0
 40
34.0
 40
34.0
 40
34.0
 40
34.0
 10
1.487154618164736
 20
0.02098166469205
 30
0.0
 10
1.530882578060469
 20
0.1469925921635305
 30
0.0
 10
1.574112284559385
 20
0.2715673142083528
 30
0.0
 10
1.617341837371248
 20
0.3961420746749176
 30
0.0
  0
SPLINE
  5
93
330
8A
100
AcDbEntity
  8
0
  6
Continuous
 62
     8
370
     0
100
AcDbSpline
210
0.0
220
0.0
230
1.0
 70
    24
 71
     3
 72
     8
 73
     4
 74
     0
 42
0.000000001
 43
0.00000001
 40
32.0
 40
32.0
 40
32.0
 40
32.0
 40
33.0
 40
33.0
 40
33.0
 40
33.0
 10
1.358252530020567
 20
0.02098166469205
 30
0.0
 10
1.403594203878849
 20
0.02098166469205
 30
0.0
 10
1.445210042728163
 20
0.02098166469205
 30
0.0
 10
1.487154618164736
 20
0.02098166469205
 30
0.0
  0
SPLINE
  5
94
330
8A
100
AcDbEntity
  8
0
  6
Continuous
 62
     8
370
     0
100
AcDbSpline
210
0.0
220
0.0
230
1.0
 70
     8
 71
     3
 72
     8
 73
     4
 74
     0
 42
0.000000001
 43
0.00000001
 40
31.0
 40
31.0
 40
31.0
 40
31.0
 40
32.0
 40
32.0
 40
32.0
 40
32.0
 10
1.155931220879272
 20
0.6119791219529866
 30
0.0
 10
1.223562895171523
 20
0.4144211890550427
 30
0.0
 10
1.291194723150807
 20
0.2168631793135314
 30
0.0
 10
1.358252530020567
 20
0.02098166469205
 30
0.0
  0
SPLINE
  5
95
330
8A
100
AcDbEntity
  8
0
  6
Continuous
 62
     8
370
     0
100
AcDbSpline
210
0.0
220
0.0
230
1.0
 70
     8
 71
     3
 72
     8
 73
     4
 74
     0
 42
0.000000001
 43
0.00000001
 40
30.0
 40
30.0
 40
30.0
 40
30.0
 40
31.0
 40
31.0
 40
31.0
 40
31.0
 10
1.150680349332222
 20
0.6124822549134179
 30
0.0
 10
1.15243069107691
 20
0.6123145439266341
 30
0.0
 10
1.154180879134584
 20
0.6121468329397722
 30
0.0
 10
1.155931220879272
 20
0.6119791219529866
 30
0.0
  0
SPLINE
  5
96
330
8A
100
AcDbEntity
  8
0
  6
Continuous
 62
     8
370
     0
100
AcDbSpline
210
0.0
220
0.0
230
1.0
 70
     8
 71
     3
 72
     8
 73
     4
 74
     0
 42
0.000000001
 43
0.00000001
 40
29.0
 40
29.0
 40
29.0
 40
29.0
 40
30.0
 40
30.0
 40
30.0
 40
30.0
 10
0.9481694672220798
 20
0.0208614814236237
 30
0.0
 10
1.015951985348072
 20
0.2188830881334553
 30
0.0
 10
1.083316244183653
 20
0.4156826523125666
 30
0.0
 10
1.150680349332222
 20
0.6124822549134179
 30
0.0
  0
SPLINE
  5
97
330
8A
100
AcDbEntity
  8
0
  6
Continuous
 62
     8
370
     0
100
AcDbSpline
210
0.0
220
0.0
230
1.0
 70
    24
 71
     3
 72
     8
 73
     4
 74
     0
 42
0.000000001
 43
0.00000001
 40
28.0
 40
28.0
 40
28.0
 40
28.0
 40
29.0
 40
29.0
 40
29.0
 40
29.0
 10
0.8194283662565629
 20
0.0208614814236237
 30
0.0
 10
0.864205624445552
 20
0.0208614814236237
 30
0.0
 10
0.9058301466128856
 20
0.0208614814236237
 30
0.0
 10
0.9481694672220798
 20
0.0208614814236237
 30
0.0
  0
SPLINE
  5
98
330
8A
100
AcDbEntity
  8
0
  6
Continuous
 62
     8
370
     0
100
AcDbSpline
210
0.0
220
0.0
230
1.0
 70
     8
 71
     3
 72
     8
 73
     4
 74
     0
 42
0.000000001
 43
0.00000001
 40
27.0
 40
27.0
 40
27.0
 40
27.0
 40
28.0
 40
28.0
 40
28.0
 40
28.0
 10
0.6940132066113596
 20
0.3815594795001297
 30
0.0
 10
0.7359666190529646
 20
0.260900280698354
 30
0.0
 10
0.7779199546510239
 20
0.1402411203183612
 30
0.0
 10
0.8194283662565629
 20
0.0208614814236237
 30
0.0
  0
SPLINE
  5
99
330
8A
100
AcDbEntity
  8
0
  6
Continuous
 62
     8
370
     0
100
AcDbSpline
210
0.0
220
0.0
230
1.0
 70
     8
 71
     3
 72
     8
 73
     4
 74
     0
 42
0.000000001
 43
0.00000001
 40
26.0
 40
26.0
 40
26.0
 40
26.0
 40
27.0
 40
27.0
 40
27.0
 40
27.0
 10
0.690171798945296
 20
0.3810893508323517
 30
0.0
 10
0.6914522425528219
 20
0.3812460731955374
 30
0.0
 10
0.6927327630038549
 20
0.3814027571369421
 30
0.0
 10
0.6940132066113596
 20
0.3815594795001297
 30
0.0
  0
SPLINE
  5
9A
330
8A
100
AcDbEntity
  8
0
  6
Continuous
 62
     8
370
     0
100
AcDbSpline
210
0.0
220
0.0
230
1.0
 70
    24
 71
     3
 72
     8
 73
     4
 74
     0
 42
0.000000001
 43
0.00000001
 40
25.0
 40
25.0
 40
25.0
 40
25.0
 40
26.0
 40
26.0
 40
26.0
 40
26.0
 10
0.690171798945296
 20
0.0267215684133154
 30
0.0
 10
0.690171798945296
 20
0.1463832230338764
 30
0.0
 10
0.690171798945296
 20
0.2637362677222606
 30
0.0
 10
0.690171798945296
 20
0.3810893508323517
 30
0.0
  0
SPLINE
  5
9B
330
8A
100
AcDbEntity
  8
0
  6
Continuous
 62
     8
370
     0
100
AcDbSpline
210
0.0
220
0.0
230
1.0
 70
     8
 71
     3
 72
     8
 73
     4
 74
     0
 42
0.000000001
 43
0.00000001
 40
24.0
 40
24.0
 40
24.0
 40
24.0
 40
25.0
 40
25.0
 40
25.0
 40
25.0
 10
0.6665367295018015
 20
0.0248740964567577
 30
0.0
 10
0.673688940314331
 20
0.0248805513126075
 30
0.0
 10
0.6808401521610634
 20
0.0259625081027092
 30
0.0
 10
0.690171798945296
 20
0.0267215684133154
 30
0.0
  0
SPLINE
  5
9C
330
8A
100
AcDbEntity
  8
0
  6
Continuous
 62
     8
370
     0
100
AcDbSpline
210
0.0
220
0.0
230
1.0
 70
     8
 71
     3
 72
     8
 73
     4
 74
     0
 42
0.000000001
 43
0.00000001
 40
23.0
 40
23.0
 40
23.0
 40
23.0
 40
24.0
 40
24.0
 40
24.0
 40
24.0
 10
0.3493110713449961
 20
0.0249956629086091
 30
0.0
 10
0.4550504471755414
 20
0.0244442337945254
 30
0.0
 10
0.5607945873044473
 20
0.0247788873329534
 30
0.0
 10
0.6665367295018015
 20
0.0248740964567577
 30
0.0
  0
SPLINE
  5
9D
330
8A
100
AcDbEntity
  8
0
  6
Continuous
 62
     8
370
     0
100
AcDbSpline
210
0.0
220
0.0
230
1.0
 70
     8
 71
     3
 72
     8
 73
     4
 74
     0
 42
0.000000001
 43
0.00000001
 40
22.0
 40
22.0
 40
22.0
 40
22.0
 40
23.0
 40
23.0
 40
23.0
 40
23.0
 10
0.1884951769118723
 20
0.0601667124091723
 30
0.0
 10
0.2390193315826015
 20
0.0351846528680666
 30
0.0
 10
0.2933691794191386
 20
0.0252873609182086
 30
0.0
 10
0.3493110713449961
 20
0.0249956629086091
 30
0.0
  0
SPLINE
  5
9E
330
8A
100
AcDbEntity
  8
0
  6
Continuous
 62
     8
370
     0
100
AcDbSpline
210
0.0
220
0.0
230
1.0
 70
     8
 71
     3
 72
     8
 73
     4
 74
     0
 42
0.000000001
 43
0.00000001
 40
21.0
 40
21.0
 40
21.0
 40
21.0
 40
22.0
 40
22.0
 40
22.0
 40
22.0
 10
0.0397213155501118
 20
0.285635442003188
 30
0.0
 10
0.0464532307189517
 20
0.1826565160143632
 30
0.0
 10
0.0952553604828298
 20
0.1062695981966055
 30
0.0
 10
0.1884951769118723
 20
0.0601667124091723
 30
0.0
  0
SPLINE
  5
9F
330
8A
100
AcDbEntity
  8
0
  6
Continuous
 62
     8
370
     0
100
AcDbSpline
210
0.0
220
0.0
230
1.0
 70
     8
 71
     3
 72
    11
 73
     7
 74
     0
 42
0.000000001
 43
0.00000001
 40
19.0
 40
19.0
 40
19.0
 40
19.0
 40
20.0
 40
20.0
 40
20.0
 40
21.0
 40
21.0
 40
21.0
 40
21.0
 10
0.3734456236816819
 20
0.5938796293056314
 30
0.0
 10
0.3392457226124493
 20
0.5927894118368822
 30
0.0
 10
0.3044681119446659
 20
0.5904522161144544
 30
0.0
 10
0.2711936758329829
 20
0.5830685141918284
 30
0.0
 10
0.130182662331542
 20
0.5517777167577067
 30
0.0
 10
0.0288964838676611
 20
0.451223703371688
 30
0.0
 10
0.0397213155501118
 20
0.285635442003188
 30
0.0
  0
SPLINE
  5
A0
330
8A
100
AcDbEntity
  8
0
  6
Continuous
 62
     8
370
     0
100
AcDbSpline
210
0.0
220
0.0
230
1.0
 70
     8
 71
     3
 72
     8
 73
     4
 74
     0
 42
0.000000001
 43
0.00000001
 40
18.0
 40
18.0
 40
18.0
 40
18.0
 40
19.0
 40
19.0
 40
19.0
 40
19.0
 10
0.5404106135908139
 20
0.5943418430906087
 30
0.0
 10
0.4822031825268198
 20
0.5943418430906087
 30
0.0
 10
0.4277765295900185
 20
0.595611528605035
 30
0.0
 10
0.3734456236816819
 20
0.5938796293056314
 30
0.0
  0
SPLINE
  5
A1
330
8A
100
AcDbEntity
  8
0
  6
Continuous
 62
     8
370
     0
100
AcDbSpline
210
0.0
220
0.0
230
1.0
 70
    24
 71
     3
 72
    11
 73
     7
 74
     0
 42
0.000000001
 43
0.00000001
 40
16.0
 40
16.0
 40
16.0
 40
16.0
 40
17.0
 40
17.0
 40
17.0
 40
18.0
 40
18.0
 40
18.0
 40
18.0
 10
0.5404106135908139
 20
0.8636909324954444
 30
0.0
 10
0.5404106135908139
 20
0.817356728495797
 30
0.0
 10
0.5404106135908139
 20
0.7730567262112387
 30
0.0
 10
0.5404106135908139
 20
0.7287567239266802
 30
0.0
 10
0.5404106135908139
 20
0.6846439124617284
 30
0.0
 10
0.5404106135908139
 20
0.6405311009968171
 30
0.0
 10
0.5404106135908139
 20
0.5943418430906087
 30
0.0
  0
SPLINE
  5
A2
330
8A
100
AcDbEntity
  8
0
  6
Continuous
 62
     8
370
     0
100
AcDbSpline
210
0.0
220
0.0
230
1.0
 70
    24
 71
     3
 72
     8
 73
     4
 74
     0
 42
0.000000001
 43
0.00000001
 40
15.0
 40
15.0
 40
15.0
 40
15.0
 40
16.0
 40
16.0
 40
16.0
 40
16.0
 10
0.6877511511579565
 20
0.8636909324954444
 30
0.0
 10
0.637656013870717
 20
0.8636909324954444
 30
0.0
 10
0.5894939522235331
 20
0.8636909324954444
 30
0.0
 10
0.5404106135908139
 20
0.8636909324954444
 30
0.0
  0
SPLINE
  5
A3
330
8A
100
AcDbEntity
  8
0
  6
Continuous
 62
     8
370
     0
100
AcDbSpline
210
0.0
220
0.0
230
1.0
 70
     8
 71
     3
 72
     8
 73
     4
 74
     0
 42
0.000000001
 43
0.00000001
 40
14.0
 40
14.0
 40
14.0
 40
14.0
 40
15.0
 40
15.0
 40
15.0
 40
15.0
 10
0.8851058329401726
 20
0.2508072682978802
 30
0.0
 10
0.8192265751677246
 20
0.4553947313254969
 30
0.0
 10
0.7533473942387846
 20
0.6599822519857083
 30
0.0
 10
0.6877511511579565
 20
0.8636909324954444
 30
0.0
  0
SPLINE
  5
A4
330
8A
100
AcDbEntity
  8
0
  6
Continuous
 62
     8
370
     0
100
AcDbSpline
210
0.0
220
0.0
230
1.0
 70
     8
 71
     3
 72
     8
 73
     4
 74
     0
 42
0.000000001
 43
0.00000001
 40
13.0
 40
13.0
 40
13.0
 40
13.0
 40
14.0
 40
14.0
 40
14.0
 40
14.0
 10
0.8895201859064792
 20
0.2506737911001599
 30
0.0
 10
0.8880487093031957
 20
0.2507182834993876
 30
0.0
 10
0.8865772326999297
 20
0.2507627758986534
 30
0.0
 10
0.8851058329401726
 20
0.2508072682978802
 30
0.0
  0
SPLINE
  5
A5
330
8A
100
AcDbEntity
  8
0
  6
Continuous
 62
     8
370
     0
100
AcDbSpline
210
0.0
220
0.0
230
1.0
 70
     8
 71
     3
 72
     8
 73
     4
 74
     0
 42
0.000000001
 43
0.00000001
 40
12.0
 40
12.0
 40
12.0
 40
12.0
 40
13.0
 40
13.0
 40
13.0
 40
13.0
 10
1.092528091917066
 20
0.8650559423989477
 30
0.0
 10
1.024666348119865
 20
0.6596796037742149
 30
0.0
 10
0.9570933054349351
 20
0.4551767262535064
 30
0.0
 10
0.8895201859064792
 20
0.2506737911001599
 30
0.0
  0
SPLINE
  5
A6
330
8A
100
AcDbEntity
  8
0
  6
Continuous
 62
     8
370
     0
100
AcDbSpline
210
0.0
220
0.0
230
1.0
 70
    24
 71
     3
 72
     8
 73
     4
 74
     0
 42
0.000000001
 43
0.00000001
 40
11.0
 40
11.0
 40
11.0
 40
11.0
 40
12.0
 40
12.0
 40
12.0
 40
12.0
 10
1.218661200588547
 20
0.8650559423989477
 30
0.0
 10
1.175041743745911
 20
0.8650559423989477
 30
0.0
 10
1.134162373211665
 20
0.8650559423989477
 30
0.0
 10
1.092528091917066
 20
0.8650559423989477
 30
0.0
  0
SPLINE
  5
A7
330
8A
100
AcDbEntity
  8
0
  6
Continuous
 62
     8
370
     0
100
AcDbSpline
210
0.0
220
0.0
230
1.0
 70
     8
 71
     3
 72
     8
 73
     4
 74
     0
 42
0.000000001
 43
0.00000001
 40
10.0
 40
10.0
 40
10.0
 40
10.0
 40
11.0
 40
11.0
 40
11.0
 40
11.0
 10
1.421478457821005
 20
0.2512611061389791
 30
0.0
 10
1.353791763566985
 20
0.4561043044078963
 30
0.0
 10
1.286105069312947
 20
0.6609474834658856
 30
0.0
 10
1.218661200588547
 20
0.8650559423989477
 30
0.0
  0
SPLINE
  5
A8
330
8A
100
AcDbEntity
  8
0
  6
Continuous
 62
     8
370
     0
100
AcDbSpline
210
0.0
220
0.0
230
1.0
 70
     8
 71
     3
 72
     8
 73
     4
 74
     0
 42
0.000000001
 43
0.00000001
 40
9.0
 40
9.0
 40
9.0
 40
9.0
 40
10.0
 40
10.0
 40
10.0
 40
10.0
 10
1.426048649449934
 20
0.2506702562981322
 30
0.0
 10
1.424525303469321
 20
0.2508672062450424
 30
0.0
 10
1.423001803801637
 20
0.2510641561920307
 30
0.0
 10
1.421478457821005
 20
0.2512611061389791
 30
0.0
  0
SPLINE
  5
A9
330
8A
100
AcDbEntity
  8
0
  6
Continuous
 62
     8
370
     0
100
AcDbSpline
210
0.0
220
0.0
230
1.0
 70
     8
 71
     3
 72
     8
 73
     4
 74
     0
 42
0.000000001
 43
0.00000001
 40
8.0
 40
8.0
 40
8.0
 40
8.0
 40
9.0
 40
9.0
 40
9.0
 40
9.0
 10
1.62417491703683
 20
0.8659516497025636
 30
0.0
 10
1.557698200880634
 20
0.6595079353460304
 30
0.0
 10
1.491873425165274
 20
0.4550891246383989
 30
0.0
 10
1.426048649449934
 20
0.2506702562981322
 30
0.0
  0
SPLINE
  5
AA
330
8A
100
AcDbEntity
  8
0
  6
Continuous
 62
     8
370
     0
100
AcDbSpline
210
0.0
220
0.0
230
1.0
 70
     8
 71
     3
 72
     8
 73
     4
 74
     0
 42
0.000000001
 43
0.00000001
 40
7.0
 40
7.0
 40
7.0
 40
7.0
 40
8.0
 40
8.0
 40
8.0
 40
8.0
 10
1.649295986509273
 20
0.8659472696217902
 30
0.0
 10
1.641065123178055
 20
0.8659804083906446
 30
0.0
 10
1.632834106159786
 20
0.8659516497025636
 30
0.0
 10
1.62417491703683
 20
0.8659516497025636
 30
0.0
  0
SPLINE
  5
AB
330
8A
100
AcDbEntity
  8
0
  6
Continuous
 62
     8
370
     0
100
AcDbSpline
210
0.0
220
0.0
230
1.0
 70
     8
 71
     3
 72
     8
 73
     4
 74
     0
 42
0.000000001
 43
0.00000001
 40
6.0
 40
6.0
 40
6.0
 40
6.0
 40
7.0
 40
7.0
 40
7.0
 40
7.0
 10
1.946341536816341
 20
0.8646261853965559
 30
0.0
 10
1.847328658686307
 20
0.8653779455725679
 30
0.0
 10
1.748311477319045
 20
0.8655485381914314
 30
0.0
 10
1.649295986509273
 20
0.8659472696217902
 30
0.0
  0
SPLINE
  5
AC
330
8A
100
AcDbEntity
  8
0
  6
Continuous
 62
     8
370
     0
100
AcDbSpline
210
0.0
220
0.0
230
1.0
 70
     8
 71
     3
 72
     8
 73
     4
 74
     0
 42
0.000000001
 43
0.00000001
 40
5.0
 40
5.0
 40
5.0
 40
5.0
 40
6.0
 40
6.0
 40
6.0
 40
6.0
 10
2.075548693742947
 20
0.8474146580679591
 30
0.0
 10
2.033357296913632
 20
0.8602345877182456
 30
0.0
 10
1.990056894374456
 20
0.8642942790140489
 30
0.0
 10
1.946341536816341
 20
0.8646261853965559
 30
0.0
  0
SPLINE
  5
AD
330
8A
100
AcDbEntity
  8
0
  6
Continuous
 62
     8
370
     0
100
AcDbSpline
210
0.0
220
0.0
230
1.0
 70
     8
 71
     3
 72
     8
 73
     4
 74
     0
 42
0.000000001
 43
0.00000001
 40
4.0
 40
4.0
 40
4.0
 40
4.0
 40
5.0
 40
5.0
 40
5.0
 40
5.0
 10
2.272852428270046
 20
0.571897195068549
 30
0.0
 10
2.277550026458512
 20
0.7064368889952508
 30
0.0
 10
2.204501498611656
 20
0.8082320021054833
 30
0.0
 10
2.075548693742947
 20
0.8474146580679591
 30
0.0
  0
SPLINE
  5
AE
330
8A
100
AcDbEntity
  8
0
  6
Continuous
 62
     8
370
     0
100
AcDbSpline
210
0.0
220
0.0
230
1.0
 70
     8
 71
     3
 72
     8
 73
     4
 74
     0
 42
0.000000001
 43
0.00000001
 40
3.0
 40
3.0
 40
3.0
 40
3.0
 40
4.0
 40
4.0
 40
4.0
 40
4.0
 10
2.046848406701573
 20
0.3076007017130627
 30
0.0
 10
2.186100087766244
 20
0.3388160388086005
 30
0.0
 10
2.268118252565098
 20
0.4363269334570884
 30
0.0
 10
2.272852428270046
 20
0.571897195068549
 30
0.0
  0
SPLINE
  5
AF
330
8A
100
AcDbEntity
  8
0
  6
Continuous
 62
     8
370
     0
100
AcDbSpline
210
0.0
220
0.0
230
1.0
 70
     8
 71
     3
 72
     8
 73
     4
 74
     0
 42
0.000000001
 43
0.00000001
 40
2.0
 40
2.0
 40
2.0
 40
2.0
 40
3.0
 40
3.0
 40
3.0
 40
3.0
 10
1.929668644155394
 20
0.2949715457116981
 30
0.0
 10
1.968879588139407
 20
0.2968527519744235
 30
0.0
 10
2.0087320218453
 20
0.2990563936555297
 30
0.0
 10
2.046848406701573
 20
0.3076007017130627
 30
0.0
  0
SPLINE
  5
B0
330
8A
100
AcDbEntity
  8
0
  6
Continuous
 62
     8
370
     0
100
AcDbSpline
210
0.0
220
0.0
230
1.0
 70
     8
 71
     3
 72
     8
 73
     4
 74
     0
 42
0.000000001
 43
0.00000001
 40
1.0
 40
1.0
 40
1.0
 40
1.0
 40
2.0
 40
2.0
 40
2.0
 40
2.0
 10
1.798772466614648
 20
0.2944888915498468
 30
0.0
 10
1.842412210147108
 20
0.294490505263809
 30
0.0
 10
1.886128950888609
 20
0.2928825545654005
 30
0.0
 10
1.929668644155394
 20
0.2949715457116981
 30
0.0
  0
SPLINE
  5
B1
330
8A
100
AcDbEntity
  8
0
  6
Continuous
 62
     8
370
     0
100
AcDbSpline
210
0.0
220
0.0
230
1.0
 70
     8
 71
     3
 72
     8
 73
     4
 74
     0
 42
0.000000001
 43
0.00000001
 40
0.0
 40
0.0
 40
0.0
 40
0.0
 40
1.0
 40
1.0
 40
1.0
 40
1.0
 10
1.771964220772605
 20
0.2944888147063214
 30
0.0
 10
1.782407870164083
 20
0.2944888147063214
 30
0.0
 10
1.790590168389365
 20
0.2944885841757452
 30
0.0
 10
1.798772466614648
 20
0.2944888915498468
 30
0.0
  0
SPLINE
  5
B2
330
8A
100
AcDbEntity
  8
0
  6
Continuous
 62
     8
370
     0
100
AcDbSpline
210
0.0
220
0.0
230
1.0
 70
     8
 71
     3
 72
     8
 73
     4
 74
     0
 42
0.000000001
 43
0.00000001
 40
37.0
 40
37.0
 40
37.0
 40
37.0
 40
38.0
 40
38.0
 40
38.0
 40
38.0
 10
1.798772466614648
 20
0.2944888915498468
 30
0.0
 10
1.790590168389365
 20
0.2944885841757452
 30
0.0
 10
1.782407870164083
 20
0.2944888147063214
 30
0.0
 10
1.771964220772605
 20
0.2944888147063214
 30
0.0
  0
SPLINE
  5
B3
330
8A
100
AcDbEntity
  8
0
  6
Continuous
 62
     8
370
     0
100
AcDbSpline
210
0.0
220
0.0
230
1.0
 70
     8
 71
     3
 72
     8
 73
     4
 74
     0
 42
0.000000001
 43
0.00000001
 40
36.0
 40
36.0
 40
36.0
 40
36.0
 40
37.0
 40
37.0
 40
37.0
 40
37.0
 10
1.929668644155394
 20
0.2949715457116981
 30
0.0
 10
1.886128950888609
 20
0.2928825545654005
 30
0.0
 10
1.842412210147108
 20
0.294490505263809
 30
0.0
 10
1.798772466614648
 20
0.2944888915498468
 30
0.0
  0
SPLINE
  5
B4
330
8A
100
AcDbEntity
  8
0
  6
Continuous
 62
     8
370
     0
100
AcDbSpline
210
0.0
220
0.0
230
1.0
 70
     8
 71
     3
 72
     8
 73
     4
 74
     0
 42
0.000000001
 43
0.00000001
 40
35.0
 40
35.0
 40
35.0
 40
35.0
 40
36.0
 40
36.0
 40
36.0
 40
36.0
 10
2.046848406701573
 20
0.3076007017130627
 30
0.0
 10
2.0087320218453
 20
0.2990563936555297
 30
0.0
 10
1.968879588139407
 20
0.2968527519744235
 30
0.0
 10
1.929668644155394
 20
0.2949715457116981
 30
0.0
  0
SPLINE
  5
B5
330
8A
100
AcDbEntity
  8
0
  6
Continuous
 62
     8
370
     0
100
AcDbSpline
210
0.0
220
0.0
230
1.0
 70
     8
 71
     3
 72
     8
 73
     4
 74
     0
 42
0.000000001
 43
0.00000001
 40
34.0
 40
34.0
 40
34.0
 40
34.0
 40
35.0
 40
35.0
 40
35.0
 40
35.0
 10
2.272852428270046
 20
0.571897195068549
 30
0.0
 10
2.268118252565098
 20
0.4363269334570884
 30
0.0
 10
2.186100087766244
 20
0.3388160388086005
 30
0.0
 10
2.046848406701573
 20
0.3076007017130627
 30
0.0
  0
SPLINE
  5
B6
330
8A
100
AcDbEntity
  8
0
  6
Continuous
 62
     8
370
     0
100
AcDbSpline
210
0.0
220
0.0
230
1.0
 70
     8
 71
     3
 72
     8
 73
     4
 74
     0
 42
0.000000001
 43
0.00000001
 40
33.0
 40
33.0
 40
33.0
 40
33.0
 40
34.0
 40
34.0
 40
34.0
 40
34.0
 10
2.075548693742947
 20
0.8474146580679591
 30
0.0
 10
2.204501498611656
 20
0.8082320021054833
 30
0.0
 10
2.277550026458512
 20
0.7064368889952508
 30
0.0
 10
2.272852428270046
 20
0.571897195068549
 30
0.0
  0
SPLINE
  5
B7
330
8A
100
AcDbEntity
  8
0
  6
Continuous
 62
     8
370
     0
100
AcDbSpline
210
0.0
220
0.0
230
1.0
 70
     8
 71
     3
 72
     8
 73
     4
 74
     0
 42
0.000000001
 43
0.00000001
 40
32.0
 40
32.0
 40
32.0
 40
32.0
 40
33.0
 40
33.0
 40
33.0
 40
33.0
 10
1.946341536816341
 20
0.8646261853965559
 30
0.0
 10
1.990056894374456
 20
0.8642942790140489
 30
0.0
 10
2.033357296913632
 20
0.8602345877182456
 30
0.0
 10
2.075548693742947
 20
0.8474146580679591
 30
0.0
  0
SPLINE
  5
B8
330
8A
100
AcDbEntity
  8
0
  6
Continuous
 62
     8
370
     0
100
AcDbSpline
210
0.0
220
0.0
230
1.0
 70
     8
 71
     3
 72
     8
 73
     4
 74
     0
 42
0.000000001
 43
0.00000001
 40
31.0
 40
31.0
 40
31.0
 40
31.0
 40
32.0
 40
32.0
 40
32.0
 40
32.0
 10
1.649295986509273
 20
0.8659472696217902
 30
0.0
 10
1.748311477319045
 20
0.8655485381914314
 30
0.0
 10
1.847328658686307
 20
0.8653779455725679
 30
0.0
 10
1.946341536816341
 20
0.8646261853965559
 30
0.0
  0
SPLINE
  5
B9
330
8A
100
AcDbEntity
  8
0
  6
Continuous
 62
     8
370
     0
100
AcDbSpline
210
0.0
220
0.0
230
1.0
 70
     8
 71
     3
 72
     8
 73
     4
 74
     0
 42
0.000000001
 43
0.00000001
 40
30.0
 40
30.0
 40
30.0
 40
30.0
 40
31.0
 40
31.0
 40
31.0
 40
31.0
 10
1.62417491703683
 20
0.8659516497025636
 30
0.0
 10
1.632834106159786
 20
0.8659516497025636
 30
0.0
 10
1.641065123178055
 20
0.8659804083906446
 30
0.0
 10
1.649295986509273
 20
0.8659472696217902
 30
0.0
  0
SPLINE
  5
BA
330
8A
100
AcDbEntity
  8
0
  6
Continuous
 62
     8
370
     0
100
AcDbSpline
210
0.0
220
0.0
230
1.0
 70
     8
 71
     3
 72
     8
 73
     4
 74
     0
 42
0.000000001
 43
0.00000001
 40
29.0
 40
29.0
 40
29.0
 40
29.0
 40
30.0
 40
30.0
 40
30.0
 40
30.0
 10
1.426048649449934
 20
0.2506702562981322
 30
0.0
 10
1.491873425165274
 20
0.4550891246383989
 30
0.0
 10
1.557698200880634
 20
0.6595079353460304
 30
0.0
 10
1.62417491703683
 20
0.8659516497025636
 30
0.0
  0
SPLINE
  5
BB
330
8A
100
AcDbEntity
  8
0
  6
Continuous
 62
     8
370
     0
100
AcDbSpline
210
0.0
220
0.0
230
1.0
 70
     8
 71
     3
 72
     8
 73
     4
 74
     0
 42
0.000000001
 43
0.00000001
 40
28.0
 40
28.0
 40
28.0
 40
28.0
 40
29.0
 40
29.0
 40
29.0
 40
29.0
 10
1.421478457821005
 20
0.2512611061389791
 30
0.0
 10
1.423001803801637
 20
0.2510641561920307
 30
0.0
 10
1.424525303469321
 20
0.2508672062450424
 30
0.0
 10
1.426048649449934
 20
0.2506702562981322
 30
0.0
  0
SPLINE
  5
BC
330
8A
100
AcDbEntity
  8
0
  6
Continuous
 62
     8
370
     0
100
AcDbSpline
210
0.0
220
0.0
230
1.0
 70
     8
 71
     3
 72
     8
 73
     4
 74
     0
 42
0.000000001
 43
0.00000001
 40
27.0
 40
27.0
 40
27.0
 40
27.0
 40
28.0
 40
28.0
 40
28.0
 40
28.0
 10
1.218661200588547
 20
0.8650559423989477
 30
0.0
 10
1.286105069312947
 20
0.6609474834658856
 30
0.0
 10
1.353791763566985
 20
0.4561043044078963
 30
0.0
 10
1.421478457821005
 20
0.2512611061389791
 30
0.0
  0
SPLINE
  5
BD
330
8A
100
AcDbEntity
  8
0
  6
Continuous
 62
     8
370
     0
100
AcDbSpline
210
0.0
220
0.0
230
1.0
 70
    24
 71
     3
 72
     8
 73
     4
 74
     0
 42
0.000000001
 43
0.00000001
 40
26.0
 40
26.0
 40
26.0
 40
26.0
 40
27.0
 40
27.0
 40
27.0
 40
27.0
 10
1.092528091917066
 20
0.8650559423989477
 30
0.0
 10
1.134162373211665
 20
0.8650559423989477
 30
0.0
 10
1.175041743745911
 20
0.8650559423989477
 30
0.0
 10
1.218661200588547
 20
0.8650559423989477
 30
0.0
  0
SPLINE
  5
BE
330
8A
100
AcDbEntity
  8
0
  6
Continuous
 62
     8
370
     0
100
AcDbSpline
210
0.0
220
0.0
230
1.0
 70
     8
 71
     3
 72
     8
 73
     4
 74
     0
 42
0.000000001
 43
0.00000001
 40
25.0
 40
25.0
 40
25.0
 40
25.0
 40
26.0
 40
26.0
 40
26.0
 40
26.0
 10
0.8895201859064792
 20
0.2506737911001599
 30
0.0
 10
0.9570933054349351
 20
0.4551767262535064
 30
0.0
 10
1.024666348119865
 20
0.6596796037742149
 30
0.0
 10
1.092528091917066
 20
0.8650559423989477
 30
0.0
  0
SPLINE
  5
BF
330
8A
100
AcDbEntity
  8
0
  6
Continuous
 62
     8
370
     0
100
AcDbSpline
210
0.0
220
0.0
230
1.0
 70
     8
 71
     3
 72
     8
 73
     4
 74
     0
 42
0.000000001
 43
0.00000001
 40
24.0
 40
24.0
 40
24.0
 40
24.0
 40
25.0
 40
25.0
 40
25.0
 40
25.0
 10
0.8851058329401726
 20
0.2508072682978802
 30
0.0
 10
0.8865772326999297
 20
0.2507627758986534
 30
0.0
 10
0.8880487093031957
 20
0.2507182834993876
 30
0.0
 10
0.8895201859064792
 20
0.2506737911001599
 30
0.0
  0
SPLINE
  5
C0
330
8A
100
AcDbEntity
  8
0
  6
Continuous
 62
     8
370
     0
100
AcDbSpline
210
0.0
220
0.0
230
1.0
 70
     8
 71
     3
 72
     8
 73
     4
 74
     0
 42
0.000000001
 43
0.00000001
 40
23.0
 40
23.0
 40
23.0
 40
23.0
 40
24.0
 40
24.0
 40
24.0
 40
24.0
 10
0.6877511511579565
 20
0.8636909324954444
 30
0.0
 10
0.7533473942387846
 20
0.6599822519857083
 30
0.0
 10
0.8192265751677246
 20
0.4553947313254969
 30
0.0
 10
0.8851058329401726
 20
0.2508072682978802
 30
0.0
  0
SPLINE
  5
C1
330
8A
100
AcDbEntity
  8
0
  6
Continuous
 62
     8
370
     0
100
AcDbSpline
210
0.0
220
0.0
230
1.0
 70
    24
 71
     3
 72
     8
 73
     4
 74
     0
 42
0.000000001
 43
0.00000001
 40
22.0
 40
22.0
 40
22.0
 40
22.0
 40
23.0
 40
23.0
 40
23.0
 40
23.0
 10
0.5404106135908139
 20
0.8636909324954444
 30
0.0
 10
0.5894939522235331
 20
0.8636909324954444
 30
0.0
 10
0.637656013870717
 20
0.8636909324954444
 30
0.0
 10
0.6877511511579565
 20
0.8636909324954444
 30
0.0
  0
SPLINE
  5
C2
330
8A
100
AcDbEntity
  8
0
  6
Continuous
 62
     8
370
     0
100
AcDbSpline
210
0.0
220
0.0
230
1.0
 70
    24
 71
     3
 72
    11
 73
     7
 74
     0
 42
0.000000001
 43
0.00000001
 40
20.0
 40
20.0
 40
20.0
 40
20.0
 40
21.0
 40
21.0
 40
21.0
 40
22.0
 40
22.0
 40
22.0
 40
22.0
 10
0.5404106135908139
 20
0.5943418430906087
 30
0.0
 10
0.5404106135908139
 20
0.6405311009968171
 30
0.0
 10
0.5404106135908139
 20
0.6846439124617284
 30
0.0
 10
0.5404106135908139
 20
0.7287567239266802
 30
0.0
 10
0.5404106135908139
 20
0.7730567262112387
 30
0.0
 10
0.5404106135908139
 20
0.817356728495797
 30
0.0
 10
0.5404106135908139
 20
0.8636909324954444
 30
0.0
  0
SPLINE
  5
C3
330
8A
100
AcDbEntity
  8
0
  6
Continuous
 62
     8
370
     0
100
AcDbSpline
210
0.0
220
0.0
230
1.0
 70
     8
 71
     3
 72
     8
 73
     4
 74
     0
 42
0.000000001
 43
0.00000001
 40
19.0
 40
19.0
 40
19.0
 40
19.0
 40
20.0
 40
20.0
 40
20.0
 40
20.0
 10
0.3734456236816819
 20
0.5938796293056314
 30
0.0
 10
0.4277765295900185
 20
0.595611528605035
 30
0.0
 10
0.4822031825268198
 20
0.5943418430906087
 30
0.0
 10
0.5404106135908139
 20
0.5943418430906087
 30
0.0
  0
SPLINE
  5
C4
330
8A
100
AcDbEntity
  8
0
  6
Continuous
 62
     8
370
     0
100
AcDbSpline
210
0.0
220
0.0
230
1.0
 70
     8
 71
     3
 72
    11
 73
     7
 74
     0
 42
0.000000001
 43
0.00000001
 40
17.0
 40
17.0
 40
17.0
 40
17.0
 40
18.0
 40
18.0
 40
18.0
 40
19.0
 40
19.0
 40
19.0
 40
19.0
 10
0.0397213155501118
 20
0.285635442003188
 30
0.0
 10
0.0288964838676611
 20
0.451223703371688
 30
0.0
 10
0.130182662331542
 20
0.5517777167577067
 30
0.0
 10
0.2711936758329829
 20
0.5830685141918284
 30
0.0
 10
0.3044681119446659
 20
0.5904522161144544
 30
0.0
 10
0.3392457226124493
 20
0.5927894118368822
 30
0.0
 10
0.3734456236816819
 20
0.5938796293056314
 30
0.0
  0
SPLINE
  5
C5
330
8A
100
AcDbEntity
  8
0
  6
Continuous
 62
     8
370
     0
100
AcDbSpline
210
0.0
220
0.0
230
1.0
 70
     8
 71
     3
 72
     8
 73
     4
 74
     0
 42
0.000000001
 43
0.00000001
 40
16.0
 40
16.0
 40
16.0
 40
16.0
 40
17.0
 40
17.0
 40
17.0
 40
17.0
 10
0.1884951769118723
 20
0.0601667124091723
 30
0.0
 10
0.0952553604828298
 20
0.1062695981966055
 30
0.0
 10
0.0464532307189517
 20
0.1826565160143632
 30
0.0
 10
0.0397213155501118
 20
0.285635442003188
 30
0.0
  0
SPLINE
  5
C6
330
8A
100
AcDbEntity
  8
0
  6
Continuous
 62
     8
370
     0
100
AcDbSpline
210
0.0
220
0.0
230
1.0
 70
     8
 71
     3
 72
     8
 73
     4
 74
     0
 42
0.000000001
 43
0.00000001
 40
15.0
 40
15.0
 40
15.0
 40
15.0
 40
16.0
 40
16.0
 40
16.0
 40
16.0
 10
0.3493110713449961
 20
0.0249956629086091
 30
0.0
 10
0.2933691794191386
 20
0.0252873609182086
 30
0.0
 10
0.2390193315826015
 20
0.0351846528680666
 30
0.0
 10
0.1884951769118723
 20
0.0601667124091723
 30
0.0
  0
SPLINE
  5
C7
330
8A
100
AcDbEntity
  8
0
  6
Continuous
 62
     8
370
     0
100
AcDbSpline
210
0.0
220
0.0
230
1.0
 70
     8
 71
     3
 72
     8
 73
     4
 74
     0
 42
0.000000001
 43
0.00000001
 40
14.0
 40
14.0
 40
14.0
 40
14.0
 40
15.0
 40
15.0
 40
15.0
 40
15.0
 10
0.6665367295018015
 20
0.0248740964567577
 30
0.0
 10
0.5607945873044473
 20
0.0247788873329534
 30
0.0
 10
0.4550504471755414
 20
0.0244442337945254
 30
0.0
 10
0.3493110713449961
 20
0.0249956629086091
 30
0.0
  0
SPLINE
  5
C8
330
8A
100
AcDbEntity
  8
0
  6
Continuous
 62
     8
370
     0
100
AcDbSpline
210
0.0
220
0.0
230
1.0
 70
     8
 71
     3
 72
     8
 73
     4
 74
     0
 42
0.000000001
 43
0.00000001
 40
13.0
 40
13.0
 40
13.0
 40
13.0
 40
14.0
 40
14.0
 40
14.0
 40
14.0
 10
0.690171798945296
 20
0.0267215684133154
 30
0.0
 10
0.6808401521610634
 20
0.0259625081027092
 30
0.0
 10
0.673688940314331
 20
0.0248805513126075
 30
0.0
 10
0.6665367295018015
 20
0.0248740964567577
 30
0.0
  0
SPLINE
  5
C9
330
8A
100
AcDbEntity
  8
0
  6
Continuous
 62
     8
370
     0
100
AcDbSpline
210
0.0
220
0.0
230
1.0
 70
    24
 71
     3
 72
     8
 73
     4
 74
     0
 42
0.000000001
 43
0.00000001
 40
12.0
 40
12.0
 40
12.0
 40
12.0
 40
13.0
 40
13.0
 40
13.0
 40
13.0
 10
0.690171798945296
 20
0.3810893508323517
 30
0.0
 10
0.690171798945296
 20
0.2637362677222606
 30
0.0
 10
0.690171798945296
 20
0.1463832230338764
 30
0.0
 10
0.690171798945296
 20
0.0267215684133154
 30
0.0
  0
SPLINE
  5
CA
330
8A
100
AcDbEntity
  8
0
  6
Continuous
 62
     8
370
     0
100
AcDbSpline
210
0.0
220
0.0
230
1.0
 70
     8
 71
     3
 72
     8
 73
     4
 74
     0
 42
0.000000001
 43
0.00000001
 40
11.0
 40
11.0
 40
11.0
 40
11.0
 40
12.0
 40
12.0
 40
12.0
 40
12.0
 10
0.6940132066113596
 20
0.3815594795001297
 30
0.0
 10
0.6927327630038549
 20
0.3814027571369421
 30
0.0
 10
0.6914522425528219
 20
0.3812460731955374
 30
0.0
 10
0.690171798945296
 20
0.3810893508323517
 30
0.0
  0
SPLINE
  5
CB
330
8A
100
AcDbEntity
  8
0
  6
Continuous
 62
     8
370
     0
100
AcDbSpline
210
0.0
220
0.0
230
1.0
 70
     8
 71
     3
 72
     8
 73
     4
 74
     0
 42
0.000000001
 43
0.00000001
 40
10.0
 40
10.0
 40
10.0
 40
10.0
 40
11.0
 40
11.0
 40
11.0
 40
11.0
 10
0.8194283662565629
 20
0.0208614814236237
 30
0.0
 10
0.7779199546510239
 20
0.1402411203183612
 30
0.0
 10
0.7359666190529646
 20
0.260900280698354
 30
0.0
 10
0.6940132066113596
 20
0.3815594795001297
 30
0.0
  0
SPLINE
  5
CC
330
8A
100
AcDbEntity
  8
0
  6
Continuous
 62
     8
370
     0
100
AcDbSpline
210
0.0
220
0.0
230
1.0
 70
    24
 71
     3
 72
     8
 73
     4
 74
     0
 42
0.000000001
 43
0.00000001
 40
9.0
 40
9.0
 40
9.0
 40
9.0
 40
10.0
 40
10.0
 40
10.0
 40
10.0
 10
0.9481694672220798
 20
0.0208614814236237
 30
0.0
 10
0.9058301466128856
 20
0.0208614814236237
 30
0.0
 10
0.864205624445552
 20
0.0208614814236237
 30
0.0
 10
0.8194283662565629
 20
0.0208614814236237
 30
0.0
  0
SPLINE
  5
CD
330
8A
100
AcDbEntity
  8
0
  6
Continuous
 62
     8
370
     0
100
AcDbSpline
210
0.0
220
0.0
230
1.0
 70
     8
 71
     3
 72
     8
 73
     4
 74
     0
 42
0.000000001
 43
0.00000001
 40
8.0
 40
8.0
 40
8.0
 40
8.0
 40
9.0
 40
9.0
 40
9.0
 40
9.0
 10
1.150680349332222
 20
0.6124822549134179
 30
0.0
 10
1.083316244183653
 20
0.4156826523125666
 30
0.0
 10
1.015951985348072
 20
0.2188830881334553
 30
0.0
 10
0.9481694672220798
 20
0.0208614814236237
 30
0.0
  0
SPLINE
  5
CE
330
8A
100
AcDbEntity
  8
0
  6
Continuous
 62
     8
370
     0
100
AcDbSpline
210
0.0
220
0.0
230
1.0
 70
     8
 71
     3
 72
     8
 73
     4
 74
     0
 42
0.000000001
 43
0.00000001
 40
7.0
 40
7.0
 40
7.0
 40
7.0
 40
8.0
 40
8.0
 40
8.0
 40
8.0
 10
1.155931220879272
 20
0.6119791219529866
 30
0.0
 10
1.154180879134584
 20
0.6121468329397722
 30
0.0
 10
1.15243069107691
 20
0.6123145439266341
 30
0.0
 10
1.150680349332222
 20
0.6124822549134179
 30
0.0
  0
SPLINE
  5
CF
330
8A
100
AcDbEntity
  8
0
  6
Continuous
 62
     8
370
     0
100
AcDbSpline
210
0.0
220
0.0
230
1.0
 70
     8
 71
     3
 72
     8
 73
     4
 74
     0
 42
0.000000001
 43
0.00000001
 40
6.0
 40
6.0
 40
6.0
 40
6.0
 40
7.0
 40
7.0
 40
7.0
 40
7.0
 10
1.358252530020567
 20
0.02098166469205
 30
0.0
 10
1.291194723150807
 20
0.2168631793135314
 30
0.0
 10
1.223562895171523
 20
0.4144211890550427
 30
0.0
 10
1.155931220879272
 20
0.6119791219529866
 30
0.0
  0
SPLINE
  5
D0
330
8A
100
AcDbEntity
  8
0
  6
Continuous
 62
     8
370
     0
100
AcDbSpline
210
0.0
220
0.0
230
1.0
 70
    24
 71
     3
 72
     8
 73
     4
 74
     0
 42
0.000000001
 43
0.00000001
 40
5.0
 40
5.0
 40
5.0
 40
5.0
 40
6.0
 40
6.0
 40
6.0
 40
6.0
 10
1.487154618164736
 20
0.02098166469205
 30
0.0
 10
1.445210042728163
 20
0.02098166469205
 30
0.0
 10
1.403594203878849
 20
0.02098166469205
 30
0.0
 10
1.358252530020567
 20
0.02098166469205
 30
0.0
  0
SPLINE
  5
D1
330
8A
100
AcDbEntity
  8
0
  6
Continuous
 62
     8
370
     0
100
AcDbSpline
210
0.0
220
0.0
230
1.0
 70
     8
 71
     3
 72
     8
 73
     4
 74
     0
 42
0.000000001
 43
0.00000001
 40
4.0
 40
4.0
 40
4.0
 40
4.0
 40
5.0
 40
5.0
 40
5.0
 40
5.0
 10
1.617341837371248
 20
0.3961420746749176
 30
0.0
 10
1.574112284559385
 20
0.2715673142083528
 30
0.0
 10
1.530882578060469
 20
0.1469925921635305
 30
0.0
 10
1.487154618164736
 20
0.02098166469205
 30
0.0
  0
SPLINE
  5
D2
330
8A
100
AcDbEntity
  8
0
  6
Continuous
 62
     8
370
     0
100
AcDbSpline
210
0.0
220
0.0
230
1.0
 70
     8
 71
     3
 72
     8
 73
     4
 74
     0
 42
0.000000001
 43
0.00000001
 40
3.0
 40
3.0
 40
3.0
 40
3.0
 40
4.0
 40
4.0
 40
4.0
 40
4.0
 10
1.624299249855472
 20
0.3947778716284157
 30
0.0
 10
1.621980112360718
 20
0.3952325931699642
 30
0.0
 10
1.619660974865984
 20
0.3956873147115886
 30
0.0
 10
1.617341837371248
 20
0.3961420746749176
 30
0.0
  0
SPLINE
  5
D3
330
8A
100
AcDbEntity
  8
0
  6
Continuous
 62
     8
370
     0
100
AcDbSpline
210
0.0
220
0.0
230
1.0
 70
    24
 71
     3
 72
     8
 73
     4
 74
     0
 42
0.000000001
 43
0.00000001
 40
2.0
 40
2.0
 40
2.0
 40
2.0
 40
3.0
 40
3.0
 40
3.0
 40
3.0
 10
1.624299249855472
 20
0.0264862735488503
 30
0.0
 10
1.624299249855472
 20
0.1490446215756984
 30
0.0
 10
1.624299249855472
 20
0.2719112658129299
 30
0.0
 10
1.624299249855472
 20
0.3947778716284157
 30
0.0
  0
SPLINE
  5
D4
330
8A
100
AcDbEntity
  8
0
  6
Continuous
 62
     8
370
     0
100
AcDbSpline
210
0.0
220
0.0
230
1.0
 70
    24
 71
     3
 72
     8
 73
     4
 74
     0
 42
0.000000001
 43
0.00000001
 40
1.0
 40
1.0
 40
1.0
 40
1.0
 40
2.0
 40
2.0
 40
2.0
 40
2.0
 10
1.771964220772605
 20
0.0264862735488503
 30
0.0
 10
1.722299791426324
 20
0.0264862735488503
 30
0.0
 10
1.674864746341027
 20
0.0264862735488503
 30
0.0
 10
1.624299249855472
 20
0.0264862735488503
 30
0.0
  0
SPLINE
  5
D5
330
8A
100
AcDbEntity
  8
0
  6
Continuous
 62
     8
370
     0
100
AcDbSpline
210
0.0
220
0.0
230
1.0
 70
    24
 71
     3
 72
     8
 73
     4
 74
     0
 42
0.000000001
 43
0.00000001
 40
0.0
 40
0.0
 40
0.0
 40
0.0
 40
1.0
 40
1.0
 40
1.0
 40
1.0
 10
1.771964220772605
 20
0.2944888147063214
 30
0.0
 10
1.771964220772605
 20
0.2037081062473845
 30
0.0
 10
1.771964220772605
 20
0.1159242183039175
 30
0.0
 10
1.771964220772605
 20
0.0264862735488503
 30
0.0
  0
SPLINE
  5
D6
330
8A
100
AcDbEntity
  8
0
  6
Continuous
 62
     8
370
     0
100
AcDbSpline
210
0.0
220
0.0
230
1.0
 70
    24
 71
     3
 72
     8
 73
     4
 74
     0
 42
0.000000001
 43
0.00000001
 40
7.0
 40
7.0
 40
7.0
 40
7.0
 40
8.0
 40
8.0
 40
8.0
 40
8.0
 10
1.772696693224568
 20
0.72493731271878
 30
0.0
 10
1.772696693224568
 20
0.6274446107741074
 30
0.0
 10
1.772696693224568
 20
0.5294707339053845
 30
0.0
 10
1.772696693224568
 20
0.4292406159646945
 30
0.0
  0
SPLINE
  5
D7
330
8A
100
AcDbEntity
  8
0
  6
Continuous
 62
     8
370
     0
100
AcDbSpline
210
0.0
220
0.0
230
1.0
 70
     8
 71
     3
 72
     8
 73
     4
 74
     0
 42
0.000000001
 43
0.00000001
 40
6.0
 40
6.0
 40
6.0
 40
6.0
 40
7.0
 40
7.0
 40
7.0
 40
7.0
 10
1.7771757484364
 20
0.7284172868789588
 30
0.0
 10
1.77589999228373
 20
0.7284342116647347
 30
0.0
 10
1.774597955646521
 20
0.7264700336090679
 30
0.0
 10
1.772696693224568
 20
0.72493731271878
 30
0.0
  0
SPLINE
  5
D8
330
8A
100
AcDbEntity
  8
0
  6
Continuous
 62
     8
370
     0
100
AcDbSpline
210
0.0
220
0.0
230
1.0
 70
     8
 71
     3
 72
     8
 73
     4
 74
     0
 42
0.000000001
 43
0.00000001
 40
5.0
 40
5.0
 40
5.0
 40
5.0
 40
6.0
 40
6.0
 40
6.0
 40
6.0
 10
1.988237547146977
 20
0.724942864663213
 30
0.0
 10
1.917900058757163
 20
0.726758196816677
 30
0.0
 10
1.847533984577173
 20
0.7274827351749661
 30
0.0
 10
1.7771757484364
 20
0.7284172868789588
 30
0.0
  0
SPLINE
  5
D9
330
8A
100
AcDbEntity
  8
0
  6
Continuous
 62
     8
370
     0
100
AcDbSpline
210
0.0
220
0.0
230
1.0
 70
     8
 71
     3
 72
     8
 73
     4
 74
     0
 42
0.000000001
 43
0.00000001
 40
4.0
 40
4.0
 40
4.0
 40
4.0
 40
5.0
 40
5.0
 40
5.0
 40
5.0
 10
2.024827819655828
 20
0.7166598437914923
 30
0.0
 10
2.012985618163513
 20
0.7205966719010098
 30
0.0
 10
2.000513760851701
 20
0.7246260388219401
 30
0.0
 10
1.988237547146977
 20
0.724942864663213
 30
0.0
  0
SPLINE
  5
DA
330
8A
100
AcDbEntity
  8
0
  6
Continuous
 62
     8
370
     0
100
AcDbSpline
210
0.0
220
0.0
230
1.0
 70
     8
 71
     3
 72
     8
 73
     4
 74
     0
 42
0.000000001
 43
0.00000001
 40
3.0
 40
3.0
 40
3.0
 40
3.0
 40
4.0
 40
4.0
 40
4.0
 40
4.0
 10
2.122229442816038
 20
0.5877238100214116
 30
0.0
 10
2.119482747964745
 20
0.6536512102604237
 30
0.0
 10
2.086392697884135
 20
0.6961935322439563
 30
0.0
 10
2.024827819655828
 20
0.7166598437914923
 30
0.0
  0
SPLINE
  5
DB
330
8A
100
AcDbEntity
  8
0
  6
Continuous
 62
     8
370
     0
100
AcDbSpline
210
0.0
220
0.0
230
1.0
 70
     8
 71
     3
 72
     8
 73
     4
 74
     0
 42
0.000000001
 43
0.00000001
 40
2.0
 40
2.0
 40
2.0
 40
2.0
 40
3.0
 40
3.0
 40
3.0
 40
3.0
 10
2.042908793014375
 20
0.4507722861015534
 30
0.0
 10
2.099434580442348
 20
0.4778377656335913
 30
0.0
 10
2.124799551253694
 20
0.5260290278191184
 30
0.0
 10
2.122229442816038
 20
0.5877238100214116
 30
0.0
  0
SPLINE
  5
DC
330
8A
100
AcDbEntity
  8
0
  6
Continuous
 62
     8
370
     0
100
AcDbSpline
210
0.0
220
0.0
230
1.0
 70
     8
 71
     3
 72
     8
 73
     4
 74
     0
 42
0.000000001
 43
0.00000001
 40
1.0
 40
1.0
 40
1.0
 40
1.0
 40
2.0
 40
2.0
 40
2.0
 40
2.0
 10
1.968538863962737
 20
0.4301953198823512
 30
0.0
 10
1.99368083487319
 20
0.431315045263547
 30
0.0
 10
2.019958245665075
 20
0.4397831245472366
 30
0.0
 10
2.042908793014375
 20
0.4507722861015534
 30
0.0
  0
SPLINE
  5
DD
330
8A
100
AcDbEntity
  8
0
  6
Continuous
 62
     8
370
     0
100
AcDbSpline
210
0.0
220
0.0
230
1.0
 70
     8
 71
     3
 72
     8
 73
     4
 74
     0
 42
0.000000001
 43
0.00000001
 40
0.0
 40
0.0
 40
0.0
 40
0.0
 40
1.0
 40
1.0
 40
1.0
 40
1.0
 10
1.772696693224568
 20
0.4292406159646945
 30
0.0
 10
1.839738209267667
 20
0.4292406159646945
 30
0.0
 10
1.904244811206169
 20
0.427331938142857
 30
0.0
 10
1.968538863962737
 20
0.4301953198823512
 30
0.0
  0
SPLINE
  5
DE
330
8A
100
AcDbEntity
  8
0
  6
Continuous
 62
     8
370
     0
100
AcDbSpline
210
0.0
220
0.0
230
1.0
 70
    24
 71
     3
 72
     8
 73
     4
 74
     0
 42
0.000000001
 43
0.00000001
 40
7.0
 40
7.0
 40
7.0
 40
7.0
 40
8.0
 40
8.0
 40
8.0
 40
8.0
 10
0.5390554012363384
 20
0.1631507100704226
 30
0.0
 10
0.5390554012363384
 20
0.2621132556935445
 30
0.0
 10
0.5390554012363384
 20
0.3598850725211094
 30
0.0
 10
0.5390554012363384
 20
0.4629506780027703
 30
0.0
  0
SPLINE
  5
DF
330
8A
100
AcDbEntity
  8
0
  6
Continuous
 62
     8
370
     0
100
AcDbSpline
210
0.0
220
0.0
230
1.0
 70
     8
 71
     3
 72
     8
 73
     4
 74
     0
 42
0.000000001
 43
0.00000001
 40
6.0
 40
6.0
 40
6.0
 40
6.0
 40
7.0
 40
7.0
 40
7.0
 40
7.0
 10
0.5248162966050102
 20
0.1604724827972793
 30
0.0
 10
0.5295344120138378
 20
0.160476709191001
 30
0.0
 10
0.5342511442393161
 20
0.1622059189671589
 30
0.0
 10
0.5390554012363384
 20
0.1631507100704226
 30
0.0
  0
SPLINE
  5
E0
330
8A
100
AcDbEntity
  8
0
  6
Continuous
 62
     8
370
     0
100
AcDbSpline
210
0.0
220
0.0
230
1.0
 70
     8
 71
     3
 72
     8
 73
     4
 74
     0
 42
0.000000001
 43
0.00000001
 40
5.0
 40
5.0
 40
5.0
 40
5.0
 40
6.0
 40
6.0
 40
6.0
 40
6.0
 10
0.3514706816879914
 20
0.1613415830313804
 30
0.0
 10
0.4092002997320391
 20
0.1594312530738381
 30
0.0
 10
0.4670281237972034
 20
0.1604200755152499
 30
0.0
 10
0.5248162966050102
 20
0.1604724827972793
 30
0.0
  0
SPLINE
  5
E1
330
8A
100
AcDbEntity
  8
0
  6
Continuous
 62
     8
370
     0
100
AcDbSpline
210
0.0
220
0.0
230
1.0
 70
     8
 71
     3
 72
     8
 73
     4
 74
     0
 42
0.000000001
 43
0.00000001
 40
4.0
 40
4.0
 40
4.0
 40
4.0
 40
5.0
 40
5.0
 40
5.0
 40
5.0
 10
0.2828443064248989
 20
0.1742452240934728
 30
0.0
 10
0.3047319925993092
 20
0.1668458845140787
 30
0.0
 10
0.3284266157723944
 20
0.1621040244569259
 30
0.0
 10
0.3514706816879914
 20
0.1613415830313804
 30
0.0
  0
SPLINE
  5
E2
330
8A
100
AcDbEntity
  8
0
  6
Continuous
 62
     8
370
     0
100
AcDbSpline
210
0.0
220
0.0
230
1.0
 70
     8
 71
     3
 72
     8
 73
     4
 74
     0
 42
0.000000001
 43
0.00000001
 40
3.0
 40
3.0
 40
3.0
 40
3.0
 40
4.0
 40
4.0
 40
4.0
 40
4.0
 10
0.1909499432229893
 20
0.2882266055659034
 30
0.0
 10
0.1968572121351931
 20
0.2306200908441237
 30
0.0
 10
0.2288319553371043
 20
0.192504858640698
 30
0.0
 10
0.2828443064248989
 20
0.1742452240934728
 30
0.0
  0
SPLINE
  5
E3
330
8A
100
AcDbEntity
  8
0
  6
Continuous
 62
     8
370
     0
100
AcDbSpline
210
0.0
220
0.0
230
1.0
 70
     8
 71
     3
 72
     8
 73
     4
 74
     0
 42
0.000000001
 43
0.00000001
 40
2.0
 40
2.0
 40
2.0
 40
2.0
 40
3.0
 40
3.0
 40
3.0
 40
3.0
 10
0.2617660514897281
 20
0.4344948302049796
 30
0.0
 10
0.2049584404447451
 20
0.402667280769489
 30
0.0
 10
0.1844805255254232
 20
0.3513151371489273
 30
0.0
 10
0.1909499432229893
 20
0.2882266055659034
 30
0.0
  0
SPLINE
  5
E4
330
8A
100
AcDbEntity
  8
0
  6
Continuous
 62
     8
370
     0
100
AcDbSpline
210
0.0
220
0.0
230
1.0
 70
     8
 71
     3
 72
     8
 73
     4
 74
     0
 42
0.000000001
 43
0.00000001
 40
1.0
 40
1.0
 40
1.0
 40
1.0
 40
2.0
 40
2.0
 40
2.0
 40
2.0
 10
0.3252256988624132
 20
0.4563019075247557
 30
0.0
 10
0.3036116140481834
 20
0.4549463877962351
 30
0.0
 10
0.2810838597570612
 20
0.4453180097517018
 30
0.0
 10
0.2617660514897281
 20
0.4344948302049796
 30
0.0
  0
SPLINE
  5
E5
330
8A
100
AcDbEntity
  8
0
  6
Continuous
 62
     8
370
     0
100
AcDbSpline
210
0.0
220
0.0
230
1.0
 70
     8
 71
     3
 72
     8
 73
     4
 74
     0
 42
0.000000001
 43
0.00000001
 40
0.0
 40
0.0
 40
0.0
 40
0.0
 40
1.0
 40
1.0
 40
1.0
 40
1.0
 10
0.5390554012363384
 20
0.4629506780027703
 30
0.0
 10
0.4654456851481354
 20
0.4609859428316056
 30
0.0
 10
0.3952073249017251
 20
0.4606908637069915
 30
0.0
 10
0.3252256988624132
 20
0.4563019075247557
 30
0.0
  0
SPLINE
  5
E6
330
8A
100
AcDbEntity
  8
0
  6
Continuous
 62
     8
370
     0
100
AcDbSpline
210
0.0
220
0.0
230
1.0
 70
     8
 71
     3
 72
     8
 73
     4
 74
     0
 42
0.000000001
 43
0.00000001
 40
7.0
 40
7.0
 40
7.0
 40
7.0
 40
8.0
 40
8.0
 40
8.0
 40
8.0
 10
1.968538863962737
 20
0.4301953198823512
 30
0.0
 10
1.904244811206169
 20
0.427331938142857
 30
0.0
 10
1.839738209267667
 20
0.4292406159646945
 30
0.0
 10
1.772696693224568
 20
0.4292406159646945
 30
0.0
  0
SPLINE
  5
E7
330
8A
100
AcDbEntity
  8
0
  6
Continuous
 62
     8
370
     0
100
AcDbSpline
210
0.0
220
0.0
230
1.0
 70
     8
 71
     3
 72
     8
 73
     4
 74
     0
 42
0.000000001
 43
0.00000001
 40
6.0
 40
6.0
 40
6.0
 40
6.0
 40
7.0
 40
7.0
 40
7.0
 40
7.0
 10
2.042908793014375
 20
0.4507722861015534
 30
0.0
 10
2.019958245665075
 20
0.4397831245472366
 30
0.0
 10
1.99368083487319
 20
0.431315045263547
 30
0.0
 10
1.968538863962737
 20
0.4301953198823512
 30
0.0
  0
SPLINE
  5
E8
330
8A
100
AcDbEntity
  8
0
  6
Continuous
 62
     8
370
     0
100
AcDbSpline
210
0.0
220
0.0
230
1.0
 70
     8
 71
     3
 72
     8
 73
     4
 74
     0
 42
0.000000001
 43
0.00000001
 40
5.0
 40
5.0
 40
5.0
 40
5.0
 40
6.0
 40
6.0
 40
6.0
 40
6.0
 10
2.122229442816038
 20
0.5877238100214116
 30
0.0
 10
2.124799551253694
 20
0.5260290278191184
 30
0.0
 10
2.099434580442348
 20
0.4778377656335913
 30
0.0
 10
2.042908793014375
 20
0.4507722861015534
 30
0.0
  0
SPLINE
  5
E9
330
8A
100
AcDbEntity
  8
0
  6
Continuous
 62
     8
370
     0
100
AcDbSpline
210
0.0
220
0.0
230
1.0
 70
     8
 71
     3
 72
     8
 73
     4
 74
     0
 42
0.000000001
 43
0.00000001
 40
4.0
 40
4.0
 40
4.0
 40
4.0
 40
5.0
 40
5.0
 40
5.0
 40
5.0
 10
2.024827819655828
 20
0.7166598437914923
 30
0.0
 10
2.086392697884135
 20
0.6961935322439563
 30
0.0
 10
2.119482747964745
 20
0.6536512102604237
 30
0.0
 10
2.122229442816038
 20
0.5877238100214116
 30
0.0
  0
SPLINE
  5
EA
330
8A
100
AcDbEntity
  8
0
  6
Continuous
 62
     8
370
     0
100
AcDbSpline
210
0.0
220
0.0
230
1.0
 70
     8
 71
     3
 72
     8
 73
     4
 74
     0
 42
0.000000001
 43
0.00000001
 40
3.0
 40
3.0
 40
3.0
 40
3.0
 40
4.0
 40
4.0
 40
4.0
 40
4.0
 10
1.988237547146977
 20
0.724942864663213
 30
0.0
 10
2.000513760851701
 20
0.7246260388219401
 30
0.0
 10
2.012985618163513
 20
0.7205966719010098
 30
0.0
 10
2.024827819655828
 20
0.7166598437914923
 30
0.0
  0
SPLINE
  5
EB
330
8A
100
AcDbEntity
  8
0
  6
Continuous
 62
     8
370
     0
100
AcDbSpline
210
0.0
220
0.0
230
1.0
 70
     8
 71
     3
 72
     8
 73
     4
 74
     0
 42
0.000000001
 43
0.00000001
 40
2.0
 40
2.0
 40
2.0
 40
2.0
 40
3.0
 40
3.0
 40
3.0
 40
3.0
 10
1.7771757484364
 20
0.7284172868789588
 30
0.0
 10
1.847533984577173
 20
0.7274827351749661
 30
0.0
 10
1.917900058757163
 20
0.726758196816677
 30
0.0
 10
1.988237547146977
 20
0.724942864663213
 30
0.0
  0
SPLINE
  5
EC
330
8A
100
AcDbEntity
  8
0
  6
Continuous
 62
     8
370
     0
100
AcDbSpline
210
0.0
220
0.0
230
1.0
 70
     8
 71
     3
 72
     8
 73
     4
 74
     0
 42
0.000000001
 43
0.00000001
 40
1.0
 40
1.0
 40
1.0
 40
1.0
 40
2.0
 40
2.0
 40
2.0
 40
2.0
 10
1.772696693224568
 20
0.72493731271878
 30
0.0
 10
1.774597955646521
 20
0.7264700336090679
 30
0.0
 10
1.77589999228373
 20
0.7284342116647347
 30
0.0
 10
1.7771757484364
 20
0.7284172868789588
 30
0.0
  0
SPLINE
  5
ED
330
8A
100
AcDbEntity
  8
0
  6
Continuous
 62
     8
370
     0
100
AcDbSpline
210
0.0
220
0.0
230
1.0
 70
    24
 71
     3
 72
     8
 73
     4
 74
     0
 42
0.000000001
 43
0.00000001
 40
0.0
 40
0.0
 40
0.0
 40
0.0
 40
1.0
 40
1.0
 40
1.0
 40
1.0
 10
1.772696693224568
 20
0.4292406159646945
 30
0.0
 10
1.772696693224568
 20
0.5294707339053845
 30
0.0
 10
1.772696693224568
 20
0.6274446107741074
 30
0.0
 10
1.772696693224568
 20
0.72493731271878
 30
0.0
  0
SPLINE
  5
EE
330
8A
100
AcDbEntity
  8
0
  6
Continuous
 62
     8
370
     0
100
AcDbSpline
210
0.0
220
0.0
230
1.0
 70
     8
 71
     3
 72
     8
 73
     4
 74
     0
 42
0.000000001
 43
0.00000001
 40
7.0
 40
7.0
 40
7.0
 40
7.0
 40
8.0
 40
8.0
 40
8.0
 40
8.0
 10
0.3252256988624132
 20
0.4563019075247557
 30
0.0
 10
0.3952073249017251
 20
0.4606908637069915
 30
0.0
 10
0.4654456851481354
 20
0.4609859428316056
 30
0.0
 10
0.5390554012363384
 20
0.4629506780027703
 30
0.0
  0
SPLINE
  5
EF
330
8A
100
AcDbEntity
  8
0
  6
Continuous
 62
     8
370
     0
100
AcDbSpline
210
0.0
220
0.0
230
1.0
 70
     8
 71
     3
 72
     8
 73
     4
 74
     0
 42
0.000000001
 43
0.00000001
 40
6.0
 40
6.0
 40
6.0
 40
6.0
 40
7.0
 40
7.0
 40
7.0
 40
7.0
 10
0.2617660514897281
 20
0.4344948302049796
 30
0.0
 10
0.2810838597570612
 20
0.4453180097517018
 30
0.0
 10
0.3036116140481834
 20
0.4549463877962351
 30
0.0
 10
0.3252256988624132
 20
0.4563019075247557
 30
0.0
  0
SPLINE
  5
F0
330
8A
100
AcDbEntity
  8
0
  6
Continuous
 62
     8
370
     0
100
AcDbSpline
210
0.0
220
0.0
230
1.0
 70
     8
 71
     3
 72
     8
 73
     4
 74
     0
 42
0.000000001
 43
0.00000001
 40
5.0
 40
5.0
 40
5.0
 40
5.0
 40
6.0
 40
6.0
 40
6.0
 40
6.0
 10
0.1909499432229893
 20
0.2882266055659034
 30
0.0
 10
0.1844805255254232
 20
0.3513151371489273
 30
0.0
 10
0.2049584404447451
 20
0.402667280769489
 30
0.0
 10
0.2617660514897281
 20
0.4344948302049796
 30
0.0
  0
SPLINE
  5
F1
330
8A
100
AcDbEntity
  8
0
  6
Continuous
 62
     8
370
     0
100
AcDbSpline
210
0.0
220
0.0
230
1.0
 70
     8
 71
     3
 72
     8
 73
     4
 74
     0
 42
0.000000001
 43
0.00000001
 40
4.0
 40
4.0
 40
4.0
 40
4.0
 40
5.0
 40
5.0
 40
5.0
 40
5.0
 10
0.2828443064248989
 20
0.1742452240934728
 30
0.0
 10
0.2288319553371043
 20
0.192504858640698
 30
0.0
 10
0.1968572121351931
 20
0.2306200908441237
 30
0.0
 10
0.1909499432229893
 20
0.2882266055659034
 30
0.0
  0
SPLINE
  5
F2
330
8A
100
AcDbEntity
  8
0
  6
Continuous
 62
     8
370
     0
100
AcDbSpline
210
0.0
220
0.0
230
1.0
 70
     8
 71
     3
 72
     8
 73
     4
 74
     0
 42
0.000000001
 43
0.00000001
 40
3.0
 40
3.0
 40
3.0
 40
3.0
 40
4.0
 40
4.0
 40
4.0
 40
4.0
 10
0.3514706816879914
 20
0.1613415830313804
 30
0.0
 10
0.3284266157723944
 20
0.1621040244569259
 30
0.0
 10
0.3047319925993092
 20
0.1668458845140787
 30
0.0
 10
0.2828443064248989
 20
0.1742452240934728
 30
0.0
  0
SPLINE
  5
F3
330
8A
100
AcDbEntity
  8
0
  6
Continuous
 62
     8
370
     0
100
AcDbSpline
210
0.0
220
0.0
230
1.0
 70
     8
 71
     3
 72
     8
 73
     4
 74
     0
 42
0.000000001
 43
0.00000001
 40
2.0
 40
2.0
 40
2.0
 40
2.0
 40
3.0
 40
3.0
 40
3.0
 40
3.0
 10
0.5248162966050102
 20
0.1604724827972793
 30
0.0
 10
0.4670281237972034
 20
0.1604200755152499
 30
0.0
 10
0.4092002997320391
 20
0.1594312530738381
 30
0.0
 10
0.3514706816879914
 20
0.1613415830313804
 30
0.0
  0
SPLINE
  5
F4
330
8A
100
AcDbEntity
  8
0
  6
Continuous
 62
     8
370
     0
100
AcDbSpline
210
0.0
220
0.0
230
1.0
 70
     8
 71
     3
 72
     8
 73
     4
 74
     0
 42
0.000000001
 43
0.00000001
 40
1.0
 40
1.0
 40
1.0
 40
1.0
 40
2.0
 40
2.0
 40
2.0
 40
2.0
 10
0.5390554012363384
 20
0.1631507100704226
 30
0.0
 10
0.5342511442393161
 20
0.1622059189671589
 30
0.0
 10
0.5295344120138378
 20
0.160476709191001
 30
0.0
 10
0.5248162966050102
 20
0.1604724827972793
 30
0.0
  0
SPLINE
  5
F5
330
8A
100
AcDbEntity
  8
0
  6
Continuous
 62
     8
370
     0
100
AcDbSpline
210
0.0
220
0.0
230
1.0
 70
    24
 71
     3
 72
     8
 73
     4
 74
     0
 42
0.000000001
 43
0.00000001
 40
0.0
 40
0.0
 40
0.0
 40
0.0
 40
1.0
 40
1.0
 40
1.0
 40
1.0
 10
0.5390554012363384
 20
0.4629506780027703
 30
0.0
 10
0.5390554012363384
 20
0.3598850725211094
 30
0.0
 10
0.5390554012363384
 20
0.2621132556935445
 30
0.0
 10
0.5390554012363384
 20
0.1631507100704226
 30
0.0
  0
ENDBLK
  5
8C
330
8A
100
AcDbEntity
  8
0
100
AcDbBlockEnd
  0
BLOCK
  5
F7
330
F6
100
AcDbEntity
  8
0
100
AcDbBlockBegin
  2
Block1
 70
     0
 10
0.0
 20
0.0
 30
0.0
  3
Block1
  1

  0
ARC
  5
F9
330
F6
100
AcDbEntity
  8
0
  6
Continuous
 62
   179
370
    25
100
AcDbCircle
 10
2.5612558397
 20
2.1973444576
 30
0.0
 40
0.015000000000001
100
AcDbArc
 50
90.0
 51
180.0
  0
ARC
  5
FA
330
F6
100
AcDbEntity
  8
0
  6
Continuous
 62
   179
370
    25
100
AcDbCircle
 10
2.5812558397
 20
2.1973444576
 30
0.0
 40
0.0150000000000006
100
AcDbArc
 50
0.0
 51
90.0
  0
ARC
  5
FB
330
F6
100
AcDbEntity
  8
0
  6
Continuous
 62
   179
370
    25
100
AcDbCircle
 10
2.5812558397
 20
1.1073444576
 30
0.0
 40
0.0150000000000008
100
AcDbArc
 50
270.0
 51
0.0
  0
ARC
  5
FC
330
F6
100
AcDbEntity
  8
0
  6
Continuous
 62
   179
370
    25
100
AcDbCircle
 10
1.5112558397
 20
1.1073444576
 30
0.0
 40
0.0150000000000008
100
AcDbArc
 50
180.0
 51
270.0
  0
ARC
  5
FD
330
F6
100
AcDbEntity
  8
0
  6
Continuous
 62
   179
370
    25
100
AcDbCircle
 10
1.5112558397
 20
1.2648444576
 30
0.0
 40
0.0150000000000008
100
AcDbArc
 50
90.0
 51
180.0
  0
ARC
  5
FE
330
F6
100
AcDbEntity
  8
0
  6
Continuous
 62
   179
370
    25
100
AcDbCircle
 10
1.5312558397
 20
1.2648444576
 30
0.0
 40
0.0150000000000008
100
AcDbArc
 50
0.0
 51
90.0
  0
ARC
  5
FF
330
F6
100
AcDbEntity
  8
0
  6
Continuous
 62
   179
370
    25
100
AcDbCircle
 10
1.5612558397
 20
1.1573444576
 30
0.0
 40
0.0150000000000019
100
AcDbArc
 50
180.0
 51
270.0
  0
ARC
  5
100
330
F6
100
AcDbEntity
  8
0
  6
Continuous
 62
   179
370
    25
100
AcDbCircle
 10
2.5312558397
 20
1.1573444576
 30
0.0
 40
0.0150000000000006
100
AcDbArc
 50
270.0
 51
0.0
  0
ARC
  5
101
330
F6
100
AcDbEntity
  8
0
  6
Continuous
 62
   179
370
    25
100
AcDbCircle
 10
2.5512558397
 20
1.8882733898
 30
0.0
 40
0.0050000000000005
100
AcDbArc
 50
135.0
 51
180.0
  0
ARC
  5
102
330
F6
100
AcDbEntity
  8
0
  6
Continuous
 62
   179
370
    25
100
AcDbCircle
 10
2.5491847718
 20
1.9003444576
 30
0.0
 40
0.0050000000000005
100
AcDbArc
 50
315.0
 51
45.0
  0
ARC
  5
103
330
F6
100
AcDbEntity
  8
0
  6
Continuous
 62
   179
370
    25
100
AcDbCircle
 10
2.5512558397
 20
1.9124155254
 30
0.0
 40
0.0050000000000005
100
AcDbArc
 50
180.0
 51
225.0
  0
LINE
  5
104
330
F6
100
AcDbEntity
  8
0
  6
Continuous
 62
   179
370
    25
100
AcDbLine
 10
2.5812558397
 20
2.2123444576
 30
0.0
 11
2.5612558397
 21
2.2123444576
 31
0.0
  0
LINE
  5
105
330
F6
100
AcDbEntity
  8
0
  6
Continuous
 62
   179
370
    25
100
AcDbLine
 10
2.5962558397
 20
1.1073444576
 30
0.0
 11
2.5962558397
 21
2.1973444576
 31
0.0
  0
LINE
  5
106
330
F6
100
AcDbEntity
  8
0
  6
Continuous
 62
   179
370
    25
100
AcDbLine
 10
1.5112558397
 20
1.0923444576
 30
0.0
 11
2.5812558397
 21
1.0923444576
 31
0.0
  0
LINE
  5
107
330
F6
100
AcDbEntity
  8
0
  6
Continuous
 62
   179
370
    25
100
AcDbLine
 10
1.4962558397
 20
1.2648444576
 30
0.0
 11
1.4962558397
 21
1.1073444576
 31
0.0
  0
LINE
  5
108
330
F6
100
AcDbEntity
  8
0
  6
Continuous
 62
   179
370
    25
100
AcDbLine
 10
1.5312558397
 20
1.2798444576
 30
0.0
 11
1.5112558397
 21
1.2798444576
 31
0.0
  0
LINE
  5
109
330
F6
100
AcDbEntity
  8
0
  6
Continuous
 62
   179
370
    25
100
AcDbLine
 10
1.5462558397
 20
1.1573444576
 30
0.0
 11
1.5462558397
 21
1.2648444576
 31
0.0
  0
LINE
  5
10A
330
F6
100
AcDbEntity
  8
0
  6
Continuous
 62
   179
370
    25
100
AcDbLine
 10
2.5312558397
 20
1.1423444576
 30
0.0
 11
1.5612558397
 21
1.1423444576
 31
0.0
  0
LINE
  5
10B
330
F6
100
AcDbEntity
  8
0
  6
Continuous
 62
   179
370
    25
100
AcDbLine
 10
2.5462558397
 20
1.8882733898
 30
0.0
 11
2.5462558397
 21
1.1573444576
 31
0.0
  0
LINE
  5
10C
330
F6
100
AcDbEntity
  8
0
  6
Continuous
 62
   179
370
    25
100
AcDbLine
 10
2.5527203058
 20
1.8968089237
 30
0.0
 11
2.5477203058
 21
1.8918089237
 31
0.0
  0
LINE
  5
10D
330
F6
100
AcDbEntity
  8
0
  6
Continuous
 62
   179
370
    25
100
AcDbLine
 10
2.5477203058
 20
1.9088799915
 30
0.0
 11
2.5527203058
 21
1.9038799915
 31
0.0
  0
LINE
  5
10E
330
F6
100
AcDbEntity
  8
0
  6
Continuous
 62
   179
370
    25
100
AcDbLine
 10
2.5462558397
 20
2.1973444576
 30
0.0
 11
2.5462558397
 21
1.9124155254
 31
0.0
  0
LINE
  5
10F
330
F6
100
AcDbEntity
  8
0
  6
Continuous
 62
     7
370
    18
100
AcDbLine
 10
1.5462558397
 20
0.2859881515
 30
0.0
 11
1.6762558397
 21
0.2659881515
 31
0.0
  0
LINE
  5
110
330
F6
100
AcDbEntity
  8
0
  6
Continuous
 62
     7
370
    18
100
AcDbLine
 10
1.6762558397
 20
0.2659881515
 30
0.0
 11
1.6762558397
 21
0.3059881515
 31
0.0
  0
LINE
  5
111
330
F6
100
AcDbEntity
  8
0
  6
Continuous
 62
     7
370
    18
100
AcDbLine
 10
1.6762558397
 20
0.3059881515
 30
0.0
 11
1.5462558397
 21
0.2859881515
 31
0.0
  0
LINE
  5
112
330
F6
100
AcDbEntity
  8
0
  6
Continuous
 62
     7
370
    18
100
AcDbLine
 10
2.5462558397
 20
0.2859881515
 30
0.0
 11
2.4162558397
 21
0.3059881515
 31
0.0
  0
LINE
  5
113
330
F6
100
AcDbEntity
  8
0
  6
Continuous
 62
     7
370
    18
100
AcDbLine
 10
2.4162558397
 20
0.3059881515
 30
0.0
 11
2.4162558397
 21
0.2659881515
 31
0.0
  0
LINE
  5
114
330
F6
100
AcDbEntity
  8
0
  6
Continuous
 62
     7
370
    18
100
AcDbLine
 10
2.4162558397
 20
0.2659881515
 30
0.0
 11
2.5462558397
 21
0.2859881515
 31
0.0
  0
LINE
  5
115
330
F6
100
AcDbEntity
  8
0
  6
Continuous
 62
     7
370
    18
100
AcDbLine
 10
1.5462558397
 20
1.0573444576
 30
0.0
 11
1.5462558397
 21
0.2466180727
 31
0.0
  0
LINE
  5
116
330
F6
100
AcDbEntity
  8
0
  6
Continuous
 62
     7
370
    18
100
AcDbLine
 10
2.5462558397
 20
1.0573444576
 30
0.0
 11
2.5462558397
 21
0.2466180727
 31
0.0
  0
LINE
  5
117
330
F6
100
AcDbEntity
  8
0
  6
Continuous
 62
     7
370
    18
100
AcDbLine
 10
1.5462558397
 20
0.2859881515
 30
0.0
 11
1.8680788896
 21
0.2859881515
 31
0.0
  0
LINE
  5
118
330
F6
100
AcDbEntity
  8
0
  6
Continuous
 62
     7
370
    18
100
AcDbLine
 10
2.5462558397
 20
0.2859881515
 30
0.0
 11
2.2244327897
 21
0.2859881515
 31
0.0
  0
LINE
  5
119
330
F6
100
AcDbEntity
  8
0
  6
Continuous
 62
     7
370
    18
100
AcDbLine
 10
1.1025550523
 20
1.0923444576
 30
0.0
 11
1.0825550523
 21
0.9623444576
 31
0.0
  0
LINE
  5
11A
330
F6
100
AcDbEntity
  8
0
  6
Continuous
 62
     7
370
    18
100
AcDbLine
 10
1.0825550523
 20
0.9623444576
 30
0.0
 11
1.1225550523
 21
0.9623444576
 31
0.0
  0
LINE
  5
11B
330
F6
100
AcDbEntity
  8
0
  6
Continuous
 62
     7
370
    18
100
AcDbLine
 10
1.1225550523
 20
0.9623444576
 30
0.0
 11
1.1025550523
 21
1.0923444576
 31
0.0
  0
LINE
  5
11C
330
F6
100
AcDbEntity
  8
0
  6
Continuous
 62
     7
370
    18
100
AcDbLine
 10
1.1025550523
 20
1.2798444576
 30
0.0
 11
1.1225550523
 21
1.4098444576
 31
0.0
  0
LINE
  5
11D
330
F6
100
AcDbEntity
  8
0
  6
Continuous
 62
     7
370
    18
100
AcDbLine
 10
1.1225550523
 20
1.4098444576
 30
0.0
 11
1.0825550523
 21
1.4098444576
 31
0.0
  0
LINE
  5
11E
330
F6
100
AcDbEntity
  8
0
  6
Continuous
 62
     7
370
    18
100
AcDbLine
 10
1.0825550523
 20
1.4098444576
 30
0.0
 11
1.1025550523
 21
1.2798444576
 31
0.0
  0
LINE
  5
11F
330
F6
100
AcDbEntity
  8
0
  6
Continuous
 62
     7
370
    18
100
AcDbLine
 10
1.4112558397
 20
1.0923444576
 30
0.0
 11
1.0631849735
 21
1.0923444576
 31
0.0
  0
LINE
  5
120
330
F6
100
AcDbEntity
  8
0
  6
Continuous
 62
     7
370
    18
100
AcDbLine
 10
1.4112558397
 20
1.2798444576
 30
0.0
 11
1.0631849735
 21
1.2798444576
 31
0.0
  0
LINE
  5
121
330
F6
100
AcDbEntity
  8
0
  6
Continuous
 62
     7
370
    18
100
AcDbLine
 10
1.1025550523
 20
1.0923444576
 30
0.0
 11
1.1025550523
 21
0.8423444576
 31
0.0
  0
LINE
  5
122
330
F6
100
AcDbEntity
  8
0
  6
Continuous
 62
     7
370
    18
100
AcDbLine
 10
1.1025550523
 20
1.0923444576
 30
0.0
 11
1.1025550523
 21
1.2798444576
 31
0.0
  0
LINE
  5
123
330
F6
100
AcDbEntity
  8
0
  6
Continuous
 62
     7
370
    18
100
AcDbLine
 10
1.1025550523
 20
1.2798444576
 30
0.0
 11
1.1025550523
 21
1.5298444576
 31
0.0
  0
LINE
  5
124
330
F6
100
AcDbEntity
  8
0
  6
Continuous
 62
     7
370
    18
100
AcDbLine
 10
0.9099179295
 20
0.4810788602
 30
0.0
 11
1.1599179295
 21
0.4810788602
 31
0.0
  0
LINE
  5
125
330
F6
100
AcDbEntity
  8
0
  6
Continuous
 62
     7
370
    18
100
AcDbLine
 10
1.1599179295
 20
0.4810788602
 30
0.0
 11
1.4986215107
 21
1.0992590553
 31
0.0
  0
LINE
  5
126
330
F6
100
AcDbEntity
  8
0
  6
Continuous
 62
     7
370
    18
100
AcDbLine
 10
1.4986215107
 20
1.0992590553
 30
0.0
 11
1.4186157763
 21
0.9948603845
 31
0.0
  0
LINE
  5
127
330
F6
100
AcDbEntity
  8
0
  6
Continuous
 62
     7
370
    18
100
AcDbLine
 10
1.4186157763
 20
0.9948603845
 30
0.0
 11
1.4536954107
 21
0.9756401023
 31
0.0
  0
LINE
  5
128
330
F6
100
AcDbEntity
  8
0
  6
Continuous
 62
     7
370
    18
100
AcDbLine
 10
1.4536954107
 20
0.9756401023
 30
0.0
 11
1.4986215107
 21
1.0992590553
 31
0.0
  0
HATCH
  5
129
330
F6
100
AcDbEntity
  8
0
  6
Continuous
 62
     7
100
AcDbHatch
 10
0.0
 20
0.0
 30
0.0
210
0.0
220
0.0
230
1.0
  2
SOLID
 70
     1
 71
     0
 91
        1
 92
        0
 93
        3
 72
     1
 10
1.676255839659676
 20
0.265988151454348
 11
1.676255839659676
 21
0.3059881514543476
 72
     1
 10
1.676255839659676
 20
0.3059881514543476
 11
1.546255839659676
 21
0.2859881514543473
 72
     1
 10
1.546255839659676
 20
0.2859881514543473
 11
1.676255839659676
 21
0.265988151454348
 97
        0
 75
     0
 76
     1
 98
        1
 10
0.0
 20
0.0
  0
HATCH
  5
12A
330
F6
100
AcDbEntity
  8
0
  6
Continuous
 62
     7
100
AcDbHatch
 10
0.0
 20
0.0
 30
0.0
210
0.0
220
0.0
230
1.0
  2
SOLID
 70
     1
 71
     0
 91
        1
 92
        0
 93
        3
 72
     1
 10
2.416255839659677
 20
0.3059881514543476
 11
2.416255839659677
 21
0.265988151454348
 72
     1
 10
2.416255839659677
 20
0.265988151454348
 11
2.546255839659677
 21
0.2859881514543473
 72
     1
 10
2.546255839659677
 20
0.2859881514543473
 11
2.416255839659677
 21
0.3059881514543476
 97
        0
 75
     0
 76
     1
 98
        1
 10
0.0
 20
0.0
  0
HATCH
  5
12B
330
F6
100
AcDbEntity
  8
0
  6
Continuous
 62
     7
100
AcDbHatch
 10
0.0
 20
0.0
 30
0.0
210
0.0
220
0.0
230
1.0
  2
SOLID
 70
     1
 71
     0
 91
        1
 92
        0
 93
        3
 72
     1
 10
1.08255505225809
 20
0.9623444576009818
 11
1.12255505225809
 21
0.9623444576009818
 72
     1
 10
1.12255505225809
 20
0.9623444576009818
 11
1.10255505225809
 21
1.092344457600982
 72
     1
 10
1.10255505225809
 20
1.092344457600982
 11
1.08255505225809
 21
0.9623444576009818
 97
        0
 75
     0
 76
     1
 98
        1
 10
0.0
 20
0.0
  0
HATCH
  5
12C
330
F6
100
AcDbEntity
  8
0
  6
Continuous
 62
     7
100
AcDbHatch
 10
0.0
 20
0.0
 30
0.0
210
0.0
220
0.0
230
1.0
  2
SOLID
 70
     1
 71
     0
 91
        1
 92
        0
 93
        3
 72
     1
 10
1.12255505225809
 20
1.409844457600981
 11
1.08255505225809
 21
1.409844457600981
 72
     1
 10
1.08255505225809
 20
1.409844457600981
 11
1.10255505225809
 21
1.279844457600982
 72
     1
 10
1.10255505225809
 20
1.279844457600982
 11
1.12255505225809
 21
1.409844457600981
 97
        0
 75
     0
 76
     1
 98
        1
 10
0.0
 20
0.0
  0
HATCH
  5
12D
330
F6
100
AcDbEntity
  8
0
  6
Continuous
 62
     7
100
AcDbHatch
 10
0.0
 20
0.0
 30
0.0
210
0.0
220
0.0
230
1.0
  2
SOLID
 70
     1
 71
     0
 91
        1
 92
        0
 93
        3
 72
     1
 10
1.418615776263578
 20
0.9948603844733139
 11
1.453695410691907
 21
0.9756401022595996
 72
     1
 10
1.453695410691907
 20
0.9756401022595996
 11
1.498621510672316
 21
1.099259055258524
 72
     1
 10
1.498621510672316
 20
1.099259055258524
 11
1.418615776263578
 21
0.9948603844733139
 97
        0
 75
     0
 76
     1
 98
        1
 10
0.0
 20
0.0
  0
MTEXT
  5
12F
330
F6
100
AcDbEntity
  8
0
  6
Continuous
 62
     7
370
    18
100
AcDbMText
 10
0.0047354401
 20
0.5499710958
 30
0.0
 40
0.1377952756
 41
0.0
 71
     1
 72
     1
  1
1/16" LEG
  7
SLDTEXTSTYLE1
 73
     1
 44
1.0
  0
MTEXT
  5
130
330
F6
100
AcDbEntity
  8
0
  6
Continuous
 62
     7
370
    18
100
AcDbMText
 10
2.0498108695
 20
0.8105431067
 30
0.0
 40
0.1354166667
 41
0.0
 71
     2
 72
     1
  1
1/2"
  7
SLDTEXTSTYLE1
 73
     1
 44
1.0
  0
MTEXT
  5
131
330
F6
100
AcDbEntity
  8
0
  6
Continuous
 62
     7
370
    18
100
AcDbMText
 10
2.0498108695
 20
0.5906174773
 30
0.0
 40
0.1354166667
 41
0.0
 71
     2
 72
     1
  1
3/4"
  7
SLDTEXTSTYLE1
 73
     1
 44
1.0
  0
MTEXT
  5
133
330
F6
100
AcDbEntity
  8
0
  6
Continuous
 62
     7
370
    18
100
AcDbMText
 10
2.0564249636
 20
0.3706918479
 30
0.0
 40
0.1354166667
 41
0.0
 71
     2
 72
     1
  1
- 1 -
  7
SLDTEXTSTYLE2
 73
     1
 44
1.0
  0
MTEXT
  5
134
330
F6
100
AcDbEntity
  8
0
  6
Continuous
 62
     7
370
    18
100
AcDbMText
 10
2.0553591919
 20
0.1507662185
 30
0.0
 40
0.1354166667
 41
0.0
 71
     2
 72
     1
  1
1"
  7
SLDTEXTSTYLE1
 73
     1
 44
1.0
  0
MTEXT
  5
135
330
F6
100
AcDbEntity
  8
0
  6
Continuous
 62
     7
370
    18
100
AcDbMText
 10
0.7615599104
 20
1.2531952079
 30
0.0
 40
0.1354166667
 41
0.0
 71
     2
 72
     1
  1
3/16"
  7
SLDTEXTSTYLE1
 73
     1
 44
1.0
  0
ENDBLK
  5
F8
330
F6
100
AcDbEntity
  8
0
100
AcDbBlockEnd
  0
BLOCK
  5
137
330
136
100
AcDbEntity
  8
0
100
AcDbBlockBegin
  2
Block13_
 70
     0
 10
0.0
 20
0.0
 30
0.0
  3
Block13_
  1

  0
LINE
  5
139
330
136
100
AcDbEntity
  8
0
  6
Continuous
 62
   179
370
    25
100
AcDbLine
 10
8.3189616611
 20
0.1400000026
 30
0.0
 11
4.2503744218
 21
0.1400000026
 31
0.0
  0
LINE
  5
13A
330
136
100
AcDbEntity
  8
0
  6
Continuous
 62
   179
370
    25
100
AcDbLine
 10
8.3189616611
 20
0.1249999892
 30
0.0
 11
8.3189616611
 21
0.1400000026
 31
0.0
  0
LINE
  5
13B
330
136
100
AcDbEntity
  8
0
  6
Continuous
 62
   179
370
    25
100
AcDbLine
 10
8.3189616611
 20
0.1249999892
 30
0.0
 11
4.2548518101
 21
0.1249999892
 31
0.0
  0
LINE
  5
13C
330
136
100
AcDbEntity
  8
0
  6
Continuous
 62
   179
370
    25
100
AcDbLine
 10
8.3189616611
 20
0.3125000098
 30
0.0
 11
4.2621686322
 21
0.3125000098
 31
0.0
  0
LINE
  5
13D
330
136
100
AcDbEntity
  8
0
  6
Continuous
 62
   179
370
    25
100
AcDbLine
 10
8.3189616611
 20
0.2974999964
 30
0.0
 11
8.3189616611
 21
0.3125000098
 31
0.0
  0
LINE
  5
13E
330
136
100
AcDbEntity
  8
0
  6
Continuous
 62
   179
370
    25
100
AcDbLine
 10
8.3189616611
 20
0.2974999964
 30
0.0
 11
4.2471677388
 21
0.2974999964
 31
0.0
  0
LINE
  5
13F
330
136
100
AcDbEntity
  8
0
  6
Continuous
 62
   179
370
    25
100
AcDbLine
 10
8.3189616611
 20
0.2974999964
 30
0.0
 11
8.3189616611
 21
0.1400000026
 31
0.0
  0
LINE
  5
140
330
136
100
AcDbEntity
  8
0
  6
Continuous
 62
   179
370
    25
100
AcDbLine
 10
8.3189616611
 20
0.9209289412
 30
0.0
 11
4.2217360326
 21
0.9209289412
 31
0.0
  0
LINE
  5
141
330
136
100
AcDbEntity
  8
0
  6
Continuous
 62
   179
370
    25
100
AcDbLine
 10
8.3189616611
 20
0.9209289412
 30
0.0
 11
8.3189616611
 21
0.3125000098
 31
0.0
  0
LINE
  5
142
330
136
100
AcDbEntity
  8
0
  6
Continuous
 62
   179
370
    25
100
AcDbLine
 10
8.3189616611
 20
1.2299999974
 30
0.0
 11
4.3339628962
 21
1.2299999974
 31
0.0
  0
LINE
  5
143
330
136
100
AcDbEntity
  8
0
  6
Continuous
 62
   179
370
    25
100
AcDbLine
 10
8.3189616611
 20
0.945071059
 30
0.0
 11
4.2145295025
 21
0.945071059
 31
0.0
  0
LINE
  5
144
330
136
100
AcDbEntity
  8
0
  6
Continuous
 62
   179
370
    25
100
AcDbLine
 10
8.3189616611
 20
1.2299999974
 30
0.0
 11
8.3189616611
 21
0.945071059
 31
0.0
  0
LINE
  5
145
330
136
100
AcDbEntity
  8
0
  6
Continuous
 62
   179
370
    25
100
AcDbLine
 10
8.3189616611
 20
0.9244644654
 30
0.0
 11
4.2206812181
 21
0.9244644654
 31
0.0
  0
LINE
  5
146
330
136
100
AcDbEntity
  8
0
  6
Continuous
 62
   179
370
    25
100
AcDbLine
 10
8.3189616611
 20
0.9244644654
 30
0.0
 11
8.3189616611
 21
0.9209289412
 31
0.0
  0
LINE
  5
147
330
136
100
AcDbEntity
  8
0
  6
Continuous
 62
   179
370
    25
100
AcDbLine
 10
8.3189616611
 20
1.2450000108
 30
0.0
 11
4.3294843346
 21
1.2450000108
 31
0.0
  0
LINE
  5
148
330
136
100
AcDbEntity
  8
0
  6
Continuous
 62
   179
370
    25
100
AcDbLine
 10
8.3189616611
 20
1.2450000108
 30
0.0
 11
8.3189616611
 21
1.2299999974
 31
0.0
  0
LINE
  5
149
330
136
100
AcDbEntity
  8
0
  6
Continuous
 62
   179
370
    25
100
AcDbLine
 10
8.3189616611
 20
0.9415355348
 30
0.0
 11
4.215584317
 21
0.9415355348
 31
0.0
  0
LINE
  5
14A
330
136
100
AcDbEntity
  8
0
  6
Continuous
 62
   179
370
    25
100
AcDbLine
 10
8.3189616611
 20
0.945071059
 30
0.0
 11
8.3189616611
 21
0.9415355348
 31
0.0
  0
LINE
  5
14B
330
136
100
AcDbEntity
  8
0
  6
Continuous
 62
   179
370
    25
100
AcDbLine
 10
8.3189616611
 20
0.9294644576
 30
0.0
 11
4.2191887554
 21
0.9294644576
 31
0.0
  0
LINE
  5
14C
330
136
100
AcDbEntity
  8
0
  6
Continuous
 62
   179
370
    25
100
AcDbLine
 10
8.3189616611
 20
0.9294644576
 30
0.0
 11
8.3189616611
 21
0.9244644654
 31
0.0
  0
LINE
  5
14D
330
136
100
AcDbEntity
  8
0
  6
Continuous
 62
   179
370
    25
100
AcDbLine
 10
8.3189616611
 20
0.9365355426
 30
0.0
 11
4.2170779531
 21
0.9365355426
 31
0.0
  0
LINE
  5
14E
330
136
100
AcDbEntity
  8
0
  6
Continuous
 62
   179
370
    25
100
AcDbLine
 10
8.3189616611
 20
0.9415355348
 30
0.0
 11
8.3189616611
 21
0.9365355426
 31
0.0
  0
LINE
  5
14F
330
136
100
AcDbEntity
  8
0
  6
Continuous
 62
   179
370
    25
100
AcDbLine
 10
8.3189616611
 20
0.9365355426
 30
0.0
 11
8.3189616611
 21
0.9294644576
 31
0.0
  0
LINE
  5
150
330
136
100
AcDbEntity
  8
0
  6
Continuous
 62
   179
370
    25
100
AcDbLine
 10
4.0503737964
 20
0.1400000026
 30
0.0
 11
0.0
 21
0.1400000026
 31
0.0
  0
LINE
  5
151
330
136
100
AcDbEntity
  8
0
  6
Continuous
 62
   179
370
    25
100
AcDbLine
 10
4.054852358
 20
0.1249999892
 30
0.0
 11
0.0
 21
0.1249999892
 31
0.0
  0
LINE
  5
152
330
136
100
AcDbEntity
  8
0
  6
Continuous
 62
   179
370
    25
100
AcDbLine
 10
0.0
 20
0.1249999892
 30
0.0
 11
0.0
 21
0.1400000026
 31
0.0
  0
LINE
  5
153
330
136
100
AcDbEntity
  8
0
  6
Continuous
 62
   179
370
    25
100
AcDbLine
 10
4.0621680068
 20
0.3125000098
 30
0.0
 11
0.0
 21
0.3125000098
 31
0.0
  0
LINE
  5
154
330
136
100
AcDbEntity
  8
0
  6
Continuous
 62
   179
370
    25
100
AcDbLine
 10
4.0471682868
 20
0.2974999964
 30
0.0
 11
0.0
 21
0.2974999964
 31
0.0
  0
LINE
  5
155
330
136
100
AcDbEntity
  8
0
  6
Continuous
 62
   179
370
    25
100
AcDbLine
 10
0.0
 20
0.2974999964
 30
0.0
 11
0.0
 21
0.3125000098
 31
0.0
  0
LINE
  5
156
330
136
100
AcDbEntity
  8
0
  6
Continuous
 62
   179
370
    25
100
AcDbLine
 10
0.0
 20
0.2974999964
 30
0.0
 11
0.0
 21
0.1400000026
 31
0.0
  0
LINE
  5
157
330
136
100
AcDbEntity
  8
0
  6
Continuous
 62
   179
370
    25
100
AcDbLine
 10
4.0217365806
 20
0.9209289412
 30
0.0
 11
0.0
 21
0.9209289412
 31
0.0
  0
LINE
  5
158
330
136
100
AcDbEntity
  8
0
  6
Continuous
 62
   179
370
    25
100
AcDbLine
 10
0.0
 20
0.9209289412
 30
0.0
 11
0.0
 21
0.3125000098
 31
0.0
  0
LINE
  5
159
330
136
100
AcDbEntity
  8
0
  6
Continuous
 62
   179
370
    25
100
AcDbLine
 10
4.1339622708
 20
1.2299999974
 30
0.0
 11
0.0
 21
1.2299999974
 31
0.0
  0
LINE
  5
15A
330
136
100
AcDbEntity
  8
0
  6
Continuous
 62
   179
370
    25
100
AcDbLine
 10
4.0145288772
 20
0.945071059
 30
0.0
 11
0.0
 21
0.945071059
 31
0.0
  0
LINE
  5
15B
330
136
100
AcDbEntity
  8
0
  6
Continuous
 62
   179
370
    25
100
AcDbLine
 10
0.0
 20
1.2299999974
 30
0.0
 11
0.0
 21
0.945071059
 31
0.0
  0
LINE
  5
15C
330
136
100
AcDbEntity
  8
0
  6
Continuous
 62
   179
370
    25
100
AcDbLine
 10
4.0206805928
 20
0.9244644654
 30
0.0
 11
0.0
 21
0.9244644654
 31
0.0
  0
LINE
  5
15D
330
136
100
AcDbEntity
  8
0
  6
Continuous
 62
   179
370
    25
100
AcDbLine
 10
0.0
 20
0.9244644654
 30
0.0
 11
0.0
 21
0.9209289412
 31
0.0
  0
LINE
  5
15E
330
136
100
AcDbEntity
  8
0
  6
Continuous
 62
   179
370
    25
100
AcDbLine
 10
4.1294848825
 20
1.2450000108
 30
0.0
 11
0.0
 21
1.2450000108
 31
0.0
  0
LINE
  5
15F
330
136
100
AcDbEntity
  8
0
  6
Continuous
 62
   179
370
    25
100
AcDbLine
 10
0.0
 20
1.2450000108
 30
0.0
 11
0.0
 21
1.2299999974
 31
0.0
  0
LINE
  5
160
330
136
100
AcDbEntity
  8
0
  6
Continuous
 62
   179
370
    25
100
AcDbLine
 10
4.015584865
 20
0.9415355348
 30
0.0
 11
0.0
 21
0.9415355348
 31
0.0
  0
LINE
  5
161
330
136
100
AcDbEntity
  8
0
  6
Continuous
 62
   179
370
    25
100
AcDbLine
 10
0.0
 20
0.945071059
 30
0.0
 11
0.0
 21
0.9415355348
 31
0.0
  0
LINE
  5
162
330
136
100
AcDbEntity
  8
0
  6
Continuous
 62
   179
370
    25
100
AcDbLine
 10
4.01918813
 20
0.9294644576
 30
0.0
 11
0.0
 21
0.9294644576
 31
0.0
  0
LINE
  5
163
330
136
100
AcDbEntity
  8
0
  6
Continuous
 62
   179
370
    25
100
AcDbLine
 10
0.0
 20
0.9294644576
 30
0.0
 11
0.0
 21
0.9244644654
 31
0.0
  0
LINE
  5
164
330
136
100
AcDbEntity
  8
0
  6
Continuous
 62
   179
370
    25
100
AcDbLine
 10
4.0170773277
 20
0.9365355426
 30
0.0
 11
0.0
 21
0.9365355426
 31
0.0
  0
LINE
  5
165
330
136
100
AcDbEntity
  8
0
  6
Continuous
 62
   179
370
    25
100
AcDbLine
 10
0.0
 20
0.9415355348
 30
0.0
 11
0.0
 21
0.9365355426
 31
0.0
  0
LINE
  5
166
330
136
100
AcDbEntity
  8
0
  6
Continuous
 62
   179
370
    25
100
AcDbLine
 10
0.0
 20
0.9365355426
 30
0.0
 11
0.0
 21
0.9294644576
 31
0.0
  0
LINE
  5
167
330
136
100
AcDbEntity
  8
0
  6
Continuous
 62
     7
370
    18
100
AcDbLine
 10
8.8142131773
 20
1.245
 30
0.0
 11
8.7942131773
 21
1.115
 31
0.0
  0
LINE
  5
168
330
136
100
AcDbEntity
  8
0
  6
Continuous
 62
     7
370
    18
100
AcDbLine
 10
8.7942131773
 20
1.115
 30
0.0
 11
8.8342131773
 21
1.115
 31
0.0
  0
LINE
  5
169
330
136
100
AcDbEntity
  8
0
  6
Continuous
 62
     7
370
    18
100
AcDbLine
 10
8.8342131773
 20
1.115
 30
0.0
 11
8.8142131773
 21
1.245
 31
0.0
  0
LINE
  5
16A
330
136
100
AcDbEntity
  8
0
  6
Continuous
 62
     7
370
    18
100
AcDbLine
 10
8.8142131773
 20
0.125
 30
0.0
 11
8.8342131773
 21
0.255
 31
0.0
  0
LINE
  5
16B
330
136
100
AcDbEntity
  8
0
  6
Continuous
 62
     7
370
    18
100
AcDbLine
 10
8.8342131773
 20
0.255
 30
0.0
 11
8.7942131773
 21
0.255
 31
0.0
  0
LINE
  5
16C
330
136
100
AcDbEntity
  8
0
  6
Continuous
 62
     7
370
    18
100
AcDbLine
 10
8.7942131773
 20
0.255
 30
0.0
 11
8.8142131773
 21
0.125
 31
0.0
  0
LINE
  5
16D
330
136
100
AcDbEntity
  8
0
  6
Continuous
 62
     7
370
    18
100
AcDbLine
 10
8.4189616611
 20
1.245
 30
0.0
 11
8.8535832561
 21
1.245
 31
0.0
  0
LINE
  5
16E
330
136
100
AcDbEntity
  8
0
  6
Continuous
 62
     7
370
    18
100
AcDbLine
 10
8.4189616611
 20
0.125
 30
0.0
 11
8.8535832561
 21
0.125
 31
0.0
  0
LINE
  5
16F
330
136
100
AcDbEntity
  8
0
  6
Continuous
 62
     7
370
    18
100
AcDbLine
 10
8.8142131773
 20
1.245
 30
0.0
 11
8.8142131773
 21
0.125
 31
0.0
  0
LINE
  5
170
330
136
100
AcDbEntity
  8
0
  6
Continuous
 62
     7
370
    18
100
AcDbLine
 10
8.3189616611
 20
1.7354795421
 30
0.0
 11
8.1889616611
 21
1.7554795421
 31
0.0
  0
LINE
  5
171
330
136
100
AcDbEntity
  8
0
  6
Continuous
 62
     7
370
    18
100
AcDbLine
 10
8.1889616611
 20
1.7554795421
 30
0.0
 11
8.1889616611
 21
1.7154795421
 31
0.0
  0
LINE
  5
172
330
136
100
AcDbEntity
  8
0
  6
Continuous
 62
     7
370
    18
100
AcDbLine
 10
8.1889616611
 20
1.7154795421
 30
0.0
 11
8.3189616611
 21
1.7354795421
 31
0.0
  0
LINE
  5
173
330
136
100
AcDbEntity
  8
0
  6
Continuous
 62
     7
370
    18
100
AcDbLine
 10
0.0
 20
1.7354795421
 30
0.0
 11
0.13
 21
1.7154795421
 31
0.0
  0
LINE
  5
174
330
136
100
AcDbEntity
  8
0
  6
Continuous
 62
     7
370
    18
100
AcDbLine
 10
0.13
 20
1.7154795421
 30
0.0
 11
0.13
 21
1.7554795421
 31
0.0
  0
LINE
  5
175
330
136
100
AcDbEntity
  8
0
  6
Continuous
 62
     7
370
    18
100
AcDbLine
 10
0.13
 20
1.7554795421
 30
0.0
 11
0.0
 21
1.7354795421
 31
0.0
  0
LINE
  5
176
330
136
100
AcDbEntity
  8
0
  6
Continuous
 62
     7
370
    18
100
AcDbLine
 10
8.3189616611
 20
1.345
 30
0.0
 11
8.3189616611
 21
1.7748496209
 31
0.0
  0
LINE
  5
177
330
136
100
AcDbEntity
  8
0
  6
Continuous
 62
     7
370
    18
100
AcDbLine
 10
0.0
 20
1.345
 30
0.0
 11
0.0
 21
1.7748496209
 31
0.0
  0
LINE
  5
178
330
136
100
AcDbEntity
  8
0
  6
Continuous
 62
     7
370
    18
100
AcDbLine
 10
8.3189616611
 20
1.7354795421
 30
0.0
 11
0.0
 21
1.7354795421
 31
0.0
  0
LINE
  5
179
330
136
100
AcDbEntity
  8
0
  6
HIDDEN
 62
   179
370
    18
100
AcDbLine
 10
4.0921682322
 20
1.37
 30
0.0
 11
4.1709083897
 21
1.1062401575
 31
0.0
  0
LINE
  5
17A
330
136
100
AcDbEntity
  8
0
  6
HIDDEN
 62
   179
370
    18
100
AcDbLine
 10
4.1709083897
 20
1.1062401575
 30
0.0
 11
4.0134280748
 21
0.9487598425
 31
0.0
  0
LINE
  5
17B
330
136
100
AcDbEntity
  8
0
  6
HIDDEN
 62
   179
370
    18
100
AcDbLine
 10
4.0134280748
 20
0.9487598425
 30
0.0
 11
4.1709083897
 21
0.4212401575
 31
0.0
  0
LINE
  5
17C
330
136
100
AcDbEntity
  8
0
  6
HIDDEN
 62
   179
370
    18
100
AcDbLine
 10
4.1709083897
 20
0.4212401575
 30
0.0
 11
4.0134280748
 21
0.2637598425
 31
0.0
  0
LINE
  5
17D
330
136
100
AcDbEntity
  8
0
  6
HIDDEN
 62
   179
370
    18
100
AcDbLine
 10
4.0134280748
 20
0.2637598425
 30
0.0
 11
4.0921682322
 21
0.0
 31
0.0
  0
LINE
  5
17E
330
136
100
AcDbEntity
  8
0
  6
HIDDEN
 62
   179
370
    18
100
AcDbLine
 10
4.2921682322
 20
1.37
 30
0.0
 11
4.3709083897
 21
1.1062401575
 31
0.0
  0
LINE
  5
17F
330
136
100
AcDbEntity
  8
0
  6
HIDDEN
 62
   179
370
    18
100
AcDbLine
 10
4.3709083897
 20
1.1062401575
 30
0.0
 11
4.2134280748
 21
0.9487598425
 31
0.0
  0
LINE
  5
180
330
136
100
AcDbEntity
  8
0
  6
HIDDEN
 62
   179
370
    18
100
AcDbLine
 10
4.2134280748
 20
0.9487598425
 30
0.0
 11
4.3709083897
 21
0.4212401575
 31
0.0
  0
LINE
  5
181
330
136
100
AcDbEntity
  8
0
  6
HIDDEN
 62
   179
370
    18
100
AcDbLine
 10
4.3709083897
 20
0.4212401575
 30
0.0
 11
4.2134280748
 21
0.2637598425
 31
0.0
  0
LINE
  5
182
330
136
100
AcDbEntity
  8
0
  6
HIDDEN
 62
   179
370
    18
100
AcDbLine
 10
4.2134280748
 20
0.2637598425
 30
0.0
 11
4.2921682322
 21
0.0
 31
0.0
  0
HATCH
  5
183
330
136
100
AcDbEntity
  8
0
  6
Continuous
 62
     7
100
AcDbHatch
 10
0.0
 20
0.0
 30
0.0
210
0.0
220
0.0
230
1.0
  2
SOLID
 70
     1
 71
     0
 91
        1
 92
        0
 93
        3
 72
     1
 10
8.79421317732802
 20
1.115000000000005
 11
8.834213177328017
 21
1.115000000000005
 72
     1
 10
8.834213177328017
 20
1.115000000000005
 11
8.81421317732802
 21
1.245000000000005
 72
     1
 10
8.81421317732802
 20
1.245000000000005
 11
8.79421317732802
 21
1.115000000000005
 97
        0
 75
     0
 76
     1
 98
        1
 10
0.0
 20
0.0
  0
HATCH
  5
184
330
136
100
AcDbEntity
  8
0
  6
Continuous
 62
     7
100
AcDbHatch
 10
0.0
 20
0.0
 30
0.0
210
0.0
220
0.0
230
1.0
  2
SOLID
 70
     1
 71
     0
 91
        1
 92
        0
 93
        3
 72
     1
 10
8.834213177328017
 20
0.2550000000000004
 11
8.79421317732802
 21
0.2550000000000004
 72
     1
 10
8.79421317732802
 20
0.2550000000000004
 11
8.81421317732802
 21
0.1250000000000004
 72
     1
 10
8.81421317732802
 20
0.1250000000000004
 11
8.834213177328017
 21
0.2550000000000004
 97
        0
 75
     0
 76
     1
 98
        1
 10
0.0
 20
0.0
  0
HATCH
  5
185
330
136
100
AcDbEntity
  8
0
  6
Continuous
 62
     7
100
AcDbHatch
 10
0.0
 20
0.0
 30
0.0
210
0.0
220
0.0
230
1.0
  2
SOLID
 70
     1
 71
     0
 91
        1
 92
        0
 93
        3
 72
     1
 10
8.188961661116196
 20
1.755479542148727
 11
8.188961661116196
 21
1.715479542148726
 72
     1
 10
8.188961661116196
 20
1.715479542148726
 11
8.318961661116195
 21
1.735479542148727
 72
     1
 10
8.318961661116195
 20
1.735479542148727
 11
8.188961661116196
 21
1.755479542148727
 97
        0
 75
     0
 76
     1
 98
        1
 10
0.0
 20
0.0
  0
HATCH
  5
186
330
136
100
AcDbEntity
  8
0
  6
Continuous
 62
     7
100
AcDbHatch
 10
0.0
 20
0.0
 30
0.0
210
0.0
220
0.0
230
1.0
  2
SOLID
 70
     1
 71
     0
 91
        1
 92
        0
 93
        3
 72
     1
 10
0.1299999999999989
 20
1.715479542148726
 11
0.1299999999999989
 21
1.755479542148727
 72
     1
 10
0.1299999999999989
 20
1.755479542148727
 11
-0.0000000000000011
 21
1.735479542148727
 72
     1
 10
-0.0000000000000011
 20
1.735479542148727
 11
0.1299999999999989
 21
1.715479542148726
 97
        0
 75
     0
 76
     1
 98
        1
 10
0.0
 20
0.0
  0
MTEXT
  5
187
330
136
100
AcDbEntity
  8
0
  6
Continuous
 62
     7
370
    18
100
AcDbMText
 10
3.1949675913
 20
2.0091938233
 30
0.0
 40
0.1666666667
 41
0.0
 71
     1
 72
     1
  1
LENGTHS UP TO 20'
  7
SLDTEXTSTYLE1
 73
     1
 44
1.0
  0
MTEXT
  5
188
330
136
100
AcDbEntity
  8
0
  6
Continuous
 62
     7
370
    18
100
AcDbMText
 10
8.9033284526
 20
0.7428630268
 30
0.0
 40
0.1377952756
 41
0.0
 71
     1
 72
     1
  1
1-1/8"
  7
SLDTEXTSTYLE1
 73
     1
 44
1.0
  0
ENDBLK
  5
138
330
136
100
AcDbEntity
  8
0
100
AcDbBlockEnd
  0
BLOCK
  5
18A
330
189
100
AcDbEntity
  8
0
100
AcDbBlockBegin
  2
Block14_
 70
     0
 10
0.0
 20
0.0
 30
0.0
  3
Block14_
  1

  0
ARC
  5
18C
330
189
100
AcDbEntity
  8
0
  6
Continuous
 62
   179
370
    25
100
AcDbCircle
 10
8.7045368926
 20
0.131563244
 30
0.0
 40
0.0066960075299401
100
AcDbArc
 50
281.4282667611
 51
8.0419372246
  0
ARC
  5
18D
330
189
100
AcDbEntity
  8
0
  6
Continuous
 62
   179
370
    25
100
AcDbCircle
 10
8.7045368926
 20
0.2121867555
 30
0.0
 40
0.006696007529942
100
AcDbArc
 50
351.9580627755
 51
78.5717332389
  0
ARC
  5
18E
330
189
100
AcDbEntity
  8
0
  6
Continuous
 62
   179
370
    25
100
AcDbCircle
 10
8.3368464329
 20
0.5349810238
 30
0.0
 40
0.0030897608842781
100
AcDbArc
 50
326.3240744242
 51
1.0107930611
  0
ARC
  5
18F
330
189
100
AcDbEntity
  8
0
  6
Continuous
 62
   179
370
    25
100
AcDbCircle
 10
8.3368464329
 20
0.5230189763
 30
0.0
 40
0.0030897608842812
100
AcDbArc
 50
358.9892069389
 51
33.6759255757
  0
ARC
  5
190
330
189
100
AcDbEntity
  8
0
  6
Continuous
 62
   179
370
    25
100
AcDbCircle
 10
8.333306707
 20
0.678437571
 30
0.0
 40
0.0066949803897797
100
AcDbArc
 50
351.9497766835
 51
78.5800193308
  0
ARC
  5
191
330
189
100
AcDbEntity
  8
0
  6
Continuous
 62
   179
370
    25
100
AcDbCircle
 10
8.3403654565
 20
0.529
 30
0.0
 40
0.0032401006072367
100
AcDbArc
 50
146.934908277
 51
213.065091723
  0
ARC
  5
192
330
189
100
AcDbEntity
  8
0
  6
Continuous
 62
   179
370
    25
100
AcDbCircle
 10
0.3823456863
 20
0.1315626533
 30
0.0
 40
0.0066952631192243
100
AcDbArc
 50
281.4222618558
 51
8.0479421298
  0
ARC
  5
193
330
189
100
AcDbEntity
  8
0
  6
Continuous
 62
   179
370
    25
100
AcDbCircle
 10
0.3823456863
 20
0.2121873461
 30
0.0
 40
0.0066952631192243
100
AcDbArc
 50
351.9520578702
 51
78.5777381442
  0
ARC
  5
194
330
189
100
AcDbEntity
  8
0
  6
Continuous
 62
   179
370
    25
100
AcDbCircle
 10
0.0146477117
 20
0.5349821255
 30
0.0
 40
0.0030964202384292
100
AcDbArc
 50
326.3816629548
 51
0.988229346
  0
ARC
  5
195
330
189
100
AcDbEntity
  8
0
  6
Continuous
 62
   179
370
    25
100
AcDbCircle
 10
0.0181734149
 20
0.529
 30
0.0
 40
0.0032401006072322
100
AcDbArc
 50
146.934908277
 51
213.065091723
  0
ARC
  5
196
330
189
100
AcDbEntity
  8
0
  6
Continuous
 62
   179
370
    25
100
AcDbCircle
 10
0.0146477117
 20
0.5230178746
 30
0.0
 40
0.0030964202384303
100
AcDbArc
 50
359.011770654
 51
33.6183370452
  0
ARC
  5
197
330
189
100
AcDbEntity
  8
0
  6
Continuous
 62
   179
370
    25
100
AcDbCircle
 10
0.0243729947
 20
0.1565626512
 30
0.0
 40
0.0066952631192231
100
AcDbArc
 50
171.9520578702
 51
258.5777381442
  0
ARC
  5
198
330
189
100
AcDbEntity
  8
0
  6
Continuous
 62
   179
370
    25
100
AcDbCircle
 10
0.3646681811
 20
0.1565624269
 30
0.0
 40
0.0066949803897761
100
AcDbArc
 50
281.4199806692
 51
8.0502233165
  0
ARC
  5
199
330
189
100
AcDbEntity
  8
0
  6
Continuous
 62
   179
370
    25
100
AcDbCircle
 10
0.3779261931
 20
0.2121875705
 30
0.0
 40
0.0066949803897779
100
AcDbArc
 50
101.4199806692
 51
188.0502233165
  0
ARC
  5
19A
330
189
100
AcDbEntity
  8
0
  6
Continuous
 62
   179
370
    25
100
AcDbCircle
 10
0.0066960075
 20
0.131563244
 30
0.0
 40
0.0066960075299404
100
AcDbArc
 50
171.9580627755
 51
258.5717332389
  0
ARC
  5
19B
330
189
100
AcDbEntity
  8
0
  6
Continuous
 62
   179
370
    25
100
AcDbCircle
 10
0.0066960075
 20
0.678436756
 30
0.0
 40
0.0066960075299415
100
AcDbArc
 50
101.4282667611
 51
188.0419372245
  0
ARC
  5
19C
330
189
100
AcDbEntity
  8
0
  6
Continuous
 62
   179
370
    25
100
AcDbCircle
 10
0.0111151172
 20
0.6784378905
 30
0.0
 40
0.0066945777895179
100
AcDbArc
 50
351.9465278456
 51
78.5832681687
  0
LINE
  5
19D
330
189
100
AcDbEntity
  8
0
  6
Continuous
 62
   179
370
    25
100
AcDbLine
 10
8.7111670511
 20
0.1325000013
 30
0.0
 11
4.3285865324
 21
0.1325000013
 31
0.0
  0
LINE
  5
19E
330
189
100
AcDbEntity
  8
0
  6
Continuous
 62
   179
370
    25
100
AcDbLine
 10
8.7058636457
 20
0.1249999946
 30
0.0
 11
4.3285865324
 21
0.1249999946
 31
0.0
  0
LINE
  5
19F
330
189
100
AcDbEntity
  8
0
  6
Continuous
 62
   179
370
    25
100
AcDbLine
 10
8.7058636457
 20
0.2187500049
 30
0.0
 11
4.3285865324
 21
0.2187500049
 31
0.0
  0
LINE
  5
1A0
330
189
100
AcDbEntity
  8
0
  6
Continuous
 62
   179
370
    25
100
AcDbLine
 10
8.7111670511
 20
0.2112499982
 30
0.0
 11
4.3285865324
 21
0.2112499982
 31
0.0
  0
LINE
  5
1A1
330
189
100
AcDbEntity
  8
0
  6
Continuous
 62
   179
370
    25
100
AcDbLine
 10
8.7111670511
 20
0.2112499982
 30
0.0
 11
8.7111670511
 21
0.1325000013
 31
0.0
  0
LINE
  5
1A2
330
189
100
AcDbEntity
  8
0
  6
Continuous
 62
   179
370
    25
100
AcDbLine
 10
8.339935713
 20
0.5229644706
 30
0.0
 11
4.3285865324
 21
0.5229644706
 31
0.0
  0
LINE
  5
1A3
330
189
100
AcDbEntity
  8
0
  6
Continuous
 62
   179
370
    25
100
AcDbLine
 10
8.339935713
 20
0.5229644706
 30
0.0
 11
8.339935713
 21
0.2187500049
 31
0.0
  0
LINE
  5
1A4
330
189
100
AcDbEntity
  8
0
  6
Continuous
 62
   179
370
    25
100
AcDbLine
 10
8.339935713
 20
0.6774999987
 30
0.0
 11
4.3285865324
 21
0.6774999987
 31
0.0
  0
LINE
  5
1A5
330
189
100
AcDbEntity
  8
0
  6
Continuous
 62
   179
370
    25
100
AcDbLine
 10
8.339935713
 20
0.6774999987
 30
0.0
 11
8.339935713
 21
0.5350355295
 31
0.0
  0
LINE
  5
1A6
330
189
100
AcDbEntity
  8
0
  6
Continuous
 62
   179
370
    25
100
AcDbLine
 10
8.339935713
 20
0.5350355295
 30
0.0
 11
4.3285865324
 21
0.5350355295
 31
0.0
  0
LINE
  5
1A7
330
189
100
AcDbEntity
  8
0
  6
Continuous
 62
   179
370
    25
100
AcDbLine
 10
8.3394176923
 20
0.5332677674
 30
0.0
 11
4.3285865324
 21
0.5332677674
 31
0.0
  0
LINE
  5
1A8
330
189
100
AcDbEntity
  8
0
  6
Continuous
 62
   179
370
    25
100
AcDbLine
 10
8.3394176923
 20
0.5247322327
 30
0.0
 11
4.3285865324
 21
0.5247322327
 31
0.0
  0
LINE
  5
1A9
330
189
100
AcDbEntity
  8
0
  6
Continuous
 62
   179
370
    25
100
AcDbLine
 10
8.3346323076
 20
0.6850000054
 30
0.0
 11
4.3285865324
 21
0.6850000054
 31
0.0
  0
LINE
  5
1AA
330
189
100
AcDbEntity
  8
0
  6
Continuous
 62
   179
370
    25
100
AcDbLine
 10
8.337650086
 20
0.5272322288
 30
0.0
 11
4.3285865324
 21
0.5272322288
 31
0.0
  0
LINE
  5
1AB
330
189
100
AcDbEntity
  8
0
  6
Continuous
 62
   179
370
    25
100
AcDbLine
 10
8.337650086
 20
0.5272322288
 30
0.0
 11
8.3394176923
 21
0.5247322327
 31
0.0
  0
LINE
  5
1AC
330
189
100
AcDbEntity
  8
0
  6
Continuous
 62
   179
370
    25
100
AcDbLine
 10
8.3394176923
 20
0.5332677674
 30
0.0
 11
8.337650086
 21
0.5307677713
 31
0.0
  0
LINE
  5
1AD
330
189
100
AcDbEntity
  8
0
  6
Continuous
 62
   179
370
    25
100
AcDbLine
 10
8.337650086
 20
0.5307677713
 30
0.0
 11
4.3285865324
 21
0.5307677713
 31
0.0
  0
LINE
  5
1AE
330
189
100
AcDbEntity
  8
0
  6
Continuous
 62
   179
370
    25
100
AcDbLine
 10
4.3282865357
 20
0.1325000013
 30
0.0
 11
0.3889750096
 21
0.1325000013
 31
0.0
  0
LINE
  5
1AF
330
189
100
AcDbEntity
  8
0
  6
Continuous
 62
   179
370
    25
100
AcDbLine
 10
4.3282865357
 20
0.1249999946
 30
0.0
 11
0.3836716042
 21
0.1249999946
 31
0.0
  0
LINE
  5
1B0
330
189
100
AcDbEntity
  8
0
  6
Continuous
 62
   179
370
    25
100
AcDbLine
 10
4.3282865357
 20
0.2187500049
 30
0.0
 11
0.3836716042
 21
0.2187500049
 31
0.0
  0
LINE
  5
1B1
330
189
100
AcDbEntity
  8
0
  6
Continuous
 62
   179
370
    25
100
AcDbLine
 10
4.3282865357
 20
0.2112499982
 30
0.0
 11
0.3889750096
 21
0.2112499982
 31
0.0
  0
LINE
  5
1B2
330
189
100
AcDbEntity
  8
0
  6
Continuous
 62
   179
370
    25
100
AcDbLine
 10
0.3889750096
 20
0.2112499982
 30
0.0
 11
0.3889750096
 21
0.1325000013
 31
0.0
  0
LINE
  5
1B3
330
189
100
AcDbEntity
  8
0
  6
Continuous
 62
   179
370
    25
100
AcDbLine
 10
0.0172262374
 20
0.5332677674
 30
0.0
 11
0.0154580445
 21
0.5307677713
 31
0.0
  0
LINE
  5
1B4
330
189
100
AcDbEntity
  8
0
  6
Continuous
 62
   179
370
    25
100
AcDbLine
 10
0.0154580445
 20
0.5272322288
 30
0.0
 11
0.0172262374
 21
0.5247322327
 31
0.0
  0
LINE
  5
1B5
330
189
100
AcDbEntity
  8
0
  6
Continuous
 62
   179
370
    25
100
AcDbLine
 10
0.0177436714
 20
0.5229644706
 30
0.0
 11
0.0177436714
 21
0.1574999991
 31
0.0
  0
LINE
  5
1B6
330
189
100
AcDbEntity
  8
0
  6
Continuous
 62
   179
370
    25
100
AcDbLine
 10
0.0230470768
 20
0.1499999924
 30
0.0
 11
0.3659937817
 21
0.1499999924
 31
0.0
  0
LINE
  5
1B7
330
189
100
AcDbEntity
  8
0
  6
Continuous
 62
   179
370
    25
100
AcDbLine
 10
0.3712971871
 20
0.1574999991
 30
0.0
 11
0.3712971871
 21
0.2112499982
 31
0.0
  0
LINE
  5
1B8
330
189
100
AcDbEntity
  8
0
  6
Continuous
 62
   179
370
    25
100
AcDbLine
 10
0.3766005925
 20
0.2187500049
 30
0.0
 11
0.3836716042
 21
0.2187500049
 31
0.0
  0
LINE
  5
1B9
330
189
100
AcDbEntity
  8
0
  6
Continuous
 62
   179
370
    25
100
AcDbLine
 10
0.3836716042
 20
0.1249999946
 30
0.0
 11
0.0053692544
 21
0.1249999946
 31
0.0
  0
LINE
  5
1BA
330
189
100
AcDbEntity
  8
0
  6
Continuous
 62
   179
370
    25
100
AcDbLine
 10
0.000065849
 20
0.1325000013
 30
0.0
 11
0.000065849
 21
0.6774999987
 31
0.0
  0
LINE
  5
1BB
330
189
100
AcDbEntity
  8
0
  6
Continuous
 62
   179
370
    25
100
AcDbLine
 10
0.0053692544
 20
0.6850000054
 30
0.0
 11
0.012440266
 21
0.6850000054
 31
0.0
  0
LINE
  5
1BC
330
189
100
AcDbEntity
  8
0
  6
Continuous
 62
   179
370
    25
100
AcDbLine
 10
0.0177436714
 20
0.6774999987
 30
0.0
 11
0.0177436714
 21
0.5350355295
 31
0.0
  0
LINE
  5
1BD
330
189
100
AcDbEntity
  8
0
  6
Continuous
 62
   179
370
    25
100
AcDbLine
 10
4.3282865357
 20
0.5229644706
 30
0.0
 11
0.0177436714
 21
0.5229644706
 31
0.0
  0
LINE
  5
1BE
330
189
100
AcDbEntity
  8
0
  6
Continuous
 62
   179
370
    25
100
AcDbLine
 10
4.3282865357
 20
0.6774999987
 30
0.0
 11
0.0177436714
 21
0.6774999987
 31
0.0
  0
LINE
  5
1BF
330
189
100
AcDbEntity
  8
0
  6
Continuous
 62
   179
370
    25
100
AcDbLine
 10
4.3282865357
 20
0.5350355295
 30
0.0
 11
0.0177436714
 21
0.5350355295
 31
0.0
  0
LINE
  5
1C0
330
189
100
AcDbEntity
  8
0
  6
Continuous
 62
   179
370
    25
100
AcDbLine
 10
4.3282865357
 20
0.5332677674
 30
0.0
 11
0.0172262374
 21
0.5332677674
 31
0.0
  0
LINE
  5
1C1
330
189
100
AcDbEntity
  8
0
  6
Continuous
 62
   179
370
    25
100
AcDbLine
 10
4.3282865357
 20
0.5247322327
 30
0.0
 11
0.0172262374
 21
0.5247322327
 31
0.0
  0
LINE
  5
1C2
330
189
100
AcDbEntity
  8
0
  6
Continuous
 62
   179
370
    25
100
AcDbLine
 10
4.3282865357
 20
0.6850000054
 30
0.0
 11
0.012440266
 21
0.6850000054
 31
0.0
  0
LINE
  5
1C3
330
189
100
AcDbEntity
  8
0
  6
Continuous
 62
   179
370
    25
100
AcDbLine
 10
4.3282865357
 20
0.5272322288
 30
0.0
 11
0.0154580445
 21
0.5272322288
 31
0.0
  0
LINE
  5
1C4
330
189
100
AcDbEntity
  8
0
  6
Continuous
 62
   179
370
    25
100
AcDbLine
 10
4.3282865357
 20
0.5307677713
 30
0.0
 11
0.0154580445
 21
0.5307677713
 31
0.0
  0
LINE
  5
1C5
330
189
100
AcDbEntity
  8
0
  6
Continuous
 62
     8
370
    25
100
AcDbLine
 10
0.3712971871
 20
0.1574999991
 30
0.0
 11
0.0177436714
 21
0.1574999991
 31
0.0
  0
ENDBLK
  5
18B
330
189
100
AcDbEntity
  8
0
100
AcDbBlockEnd
  0
BLOCK
  5
1CC
330
1CB
100
AcDbEntity
  8
0
100
AcDbBlockBegin
  2
SW_TABLEANNOTATION_0
 70
     0
 10
0.0
 20
0.0
 30
0.0
  3
SW_TABLEANNOTATION_0
  1

  0
LINE
  5
1CE
330
1CB
100
AcDbEntity
  8
FORMAT
 62
     0
100
AcDbLine
 10
0.0
 20
0.0
 30
0.0
 11
0.0
 21
-1.0877351438
 31
0.0
  0
LINE
  5
1CF
330
1CB
100
AcDbEntity
  8
FORMAT
 62
     0
100
AcDbLine
 10
0.0
 20
-1.0877351438
 30
0.0
 11
3.5338148144
 21
-1.0877351438
 31
0.0
  0
LINE
  5
1D0
330
1CB
100
AcDbEntity
  8
FORMAT
 62
     0
100
AcDbLine
 10
3.5338148144
 20
-1.0877351438
 30
0.0
 11
3.5338148144
 21
0.0
 31
0.0
  0
LINE
  5
1D1
330
1CB
100
AcDbEntity
  8
FORMAT
 62
     0
100
AcDbLine
 10
3.5338148144
 20
0.0
 30
0.0
 11
0.0
 21
0.0
 31
0.0
  0
LINE
  5
1D2
330
1CB
100
AcDbEntity
  8
FORMAT
 62
     0
100
AcDbLine
 10
1.7669074072
 20
-0.2175470288
 30
0.0
 11
1.7669074072
 21
-1.0877351438
 31
0.0
  0
LINE
  5
1D3
330
1CB
100
AcDbEntity
  8
FORMAT
 62
     0
100
AcDbLine
 10
0.0
 20
-0.2175470288
 30
0.0
 11
3.5338148144
 21
-0.2175470288
 31
0.0
  0
LINE
  5
1D4
330
1CB
100
AcDbEntity
  8
FORMAT
 62
     0
100
AcDbLine
 10
0.0
 20
-0.4350940575
 30
0.0
 11
3.5338148144
 21
-0.4350940575
 31
0.0
  0
LINE
  5
1D5
330
1CB
100
AcDbEntity
  8
FORMAT
 62
     0
100
AcDbLine
 10
0.0
 20
-0.6526410863
 30
0.0
 11
3.5338148144
 21
-0.6526410863
 31
0.0
  0
LINE
  5
1D6
330
1CB
100
AcDbEntity
  8
FORMAT
 62
     0
100
AcDbLine
 10
0.0
 20
-0.870188115
 30
0.0
 11
3.5338148144
 21
-0.870188115
 31
0.0
  0
MTEXT
  5
1D7
330
1CB
100
AcDbEntity
  8
FORMAT
 62
     0
100
AcDbMText
 10
0.7840634811
 20
-0.0372487842
 30
0.0
 40
0.1377952756
 41
0.0
 71
     1
 72
     1
  1
PANEL L EDGE WITH LIP
  7
SLDTEXTSTYLE1
 73
     1
 44
1.0
  0
MTEXT
  5
1D8
330
1CB
100
AcDbEntity
  8
FORMAT
 62
     0
100
AcDbMText
 10
0.4847268631
 20
-0.2642743332
 30
0.0
 40
0.125
 41
0.0
 71
     1
 72
     1
  1
Panel Size
  7
SLDTEXTSTYLE1
 73
     1
 44
1.0
  0
MTEXT
  5
1D9
330
1CB
100
AcDbEntity
  8
FORMAT
 62
     0
100
AcDbMText
 10
1.9818425869
 20
-0.2642743332
 30
0.0
 40
0.125
 41
0.0
 71
     1
 72
     1
  1
Product Number
  7
SLDTEXTSTYLE1
 73
     1
 44
1.0
  0
MTEXT
  5
1DA
330
1CB
100
AcDbEntity
  8
FORMAT
 62
     0
100
AcDbMText
 10
0.7417098727
 20
-0.4870443925
 30
0.0
 40
0.1145833333
 41
0.0
 71
     1
 72
     1
  1
1/2"
  7
SLDTEXTSTYLE1
 73
     1
 44
1.0
  0
MTEXT
  5
1DB
330
1CB
100
AcDbEntity
  8
FORMAT
 62
     0
100
AcDbMText
 10
2.2848614764
 20
-0.4870443925
 30
0.0
 40
0.1145833333
 41
0.0
 71
     1
 72
     1
  1
PLE-WL-50
  7
SLDTEXTSTYLE1
 73
     1
 44
1.0
  0
MTEXT
  5
1DC
330
1CB
100
AcDbEntity
  8
FORMAT
 62
     0
100
AcDbMText
 10
0.7417098727
 20
-0.7045914213
 30
0.0
 40
0.1145833333
 41
0.0
 71
     1
 72
     1
  1
3/4"
  7
SLDTEXTSTYLE1
 73
     1
 44
1.0
  0
MTEXT
  5
1DD
330
1CB
100
AcDbEntity
  8
FORMAT
 62
     0
100
AcDbMText
 10
2.2848614764
 20
-0.7045914213
 30
0.0
 40
0.1145833333
 41
0.0
 71
     1
 72
     1
  1
PLE-WL-75
  7
SLDTEXTSTYLE1
 73
     1
 44
1.0
  0
MTEXT
  5
1DE
330
1CB
100
AcDbEntity
  8
FORMAT
 62
     0
100
AcDbMText
 10
0.8174621934
 20
-0.9221384501
 30
0.0
 40
0.1145833333
 41
0.0
 71
     1
 72
     1
  1
1"
  7
SLDTEXTSTYLE1
 73
     1
 44
1.0
  0
MTEXT
  5
1DF
330
1CB
100
AcDbEntity
  8
FORMAT
 62
     0
100
AcDbMText
 10
2.2425293088
 20
-0.9221384501
 30
0.0
 40
0.1145833333
 41
0.0
 71
     1
 72
     1
  1
PLE-WL-100
  7
SLDTEXTSTYLE1
 73
     1
 44
1.0
  0
ENDBLK
  5
1CD
330
1CB
100
AcDbEntity
  8
0
100
AcDbBlockEnd
  0
ENDSEC
  0
SECTION
  2
ENTITIES
  0
INSERT
  5
1C7
330
1F
100
AcDbEntity
  8
0
  6
Continuous
 62
     7
100
AcDbBlockReference
  2
Block3
 10
0.4370336966
 20
0.1602847181
 30
0.0
  0
INSERT
  5
1C8
330
1F
100
AcDbEntity
  8
0
  6
Continuous
 62
     7
100
AcDbBlockReference
  2
Block1
 10
1.3321203271
 20
6.8006765245
 30
0.0
  0
INSERT
  5
1C9
330
1F
100
AcDbEntity
  8
0
  6
Continuous
 62
     7
100
AcDbBlockReference
  2
Block13_
 10
5.9623203648
 20
7.7680209847
 30
0.0
  0
INSERT
  5
1CA
330
1F
100
AcDbEntity
  8
0
  6
Continuous
 62
     7
100
AcDbBlockReference
  2
Block14_
 10
5.9492468642
 20
4.0899238655
 30
0.0
  0
INSERT
  5
1E0
330
1F
100
AcDbEntity
  8
FORMAT
100
AcDbBlockReference
  2
SW_TABLEANNOTATION_0
 10
0.4022611988
 20
4.9732050099
 30
0.0
  0
ENDSEC
  0
SECTION
  2
OBJECTS
  0
DICTIONARY
  5
C
330
0
100
AcDbDictionary
281
     1
  3
ACAD_GROUP
350
D
  3
ACAD_LAYOUT
350
1A
  3
ACAD_MLINESTYLE
350
17
  3
ACAD_PLOTSETTINGS
350
19
  3
ACAD_PLOTSTYLENAME
350
E
  3
ACAD_SCALELIST
350
47
  0
DICTIONARY
  5
D
102
{ACAD_REACTORS
330
C
102
}
330
C
100
AcDbDictionary
281
     1
  0
DICTIONARY
  5
1A
102
{ACAD_REACTORS
330
C
102
}
330
C
100
AcDbDictionary
281
     1
  3
Layout1
350
1E
  3
Layout2
350
26
  3
Model
350
22
  0
DICTIONARY
  5
17
102
{ACAD_REACTORS
330
C
102
}
330
C
100
AcDbDictionary
281
     1
  3
Standard
350
18
  0
DICTIONARY
  5
19
102
{ACAD_REACTORS
330
C
102
}
330
C
100
AcDbDictionary
281
     1
  0
ACDBDICTIONARYWDFLT
  5
E
102
{ACAD_REACTORS
330
C
102
}
330
C
100
AcDbDictionary
281
     1
  3
Normal
350
F
100
AcDbDictionaryWithDefault
340
F
  0
DICTIONARY
  5
47
102
{ACAD_REACTORS
330
C
102
}
330
C
100
AcDbDictionary
281
     1
  3
A0
350
48
  3
A1
350
49
  3
A2
350
4A
  3
A3
350
4B
  3
A4
350
4C
  3
A5
350
4D
  3
A6
350
4E
  3
A7
350
4F
  3
A8
350
50
  3
A9
350
51
  3
B0
350
52
  3
B1
350
53
  3
B2
350
54
  3
B3
350
55
  3
B4
350
56
  3
B5
350
57
  3
B6
350
58
  3
B7
350
59
  3
B8
350
5A
  3
B9
350
5B
  3
C0
350
5C
  3
C1
350
5D
  3
C2
350
5E
  3
C3
350
5F
  3
C4
350
60
  3
C5
350
61
  3
C6
350
62
  3
C7
350
63
  3
C8
350
64
  3
C9
350
65
  3
D0
350
66
  3
D1
350
67
  3
D2
350
68
  0
LAYOUT
  5
1E
102
{ACAD_REACTORS
330
1A
102
}
330
1A
100
AcDbPlotSettings
  1

  2
none_device
  4

  6

 40
0.0
 41
0.0
 42
0.0
 43
0.0
 44
0.0
 45
0.0
 46
0.0
 47
0.0
 48
0.0
 49
0.0
140
0.0
141
0.0
142
1.0
143
1.0
 70
   688
 72
     0
 73
     0
 74
     5
  7

 75
    16
147
1.0
148
0.0
149
0.0
100
AcDbLayout
  1
Layout1
 70
     1
 71
     1
 10
0.0
 20
0.0
 11
12.0
 21
9.0
 12
0.0
 22
0.0
 32
0.0
 14
1.0000000000E+20
 24
1.0000000000E+20
 34
1.0000000000E+20
 15
-1.0000000000E+20
 25
-1.0000000000E+20
 35
-1.0000000000E+20
146
0.0
 13
0.0
 23
0.0
 33
0.0
 16
1.0
 26
0.0
 36
0.0
 17
0.0
 27
1.0
 37
0.0
 76
     0
330
1B
  0
LAYOUT
  5
26
102
{ACAD_REACTORS
330
1A
102
}
330
1A
100
AcDbPlotSettings
  1

  2
none_device
  4

  6

 40
0.0
 41
0.0
 42
0.0
 43
0.0
 44
0.0
 45
0.0
 46
0.0
 47
0.0
 48
0.0
 49
0.0
140
0.0
141
0.0
142
1.0
143
1.0
 70
   688
 72
     0
 73
     0
 74
     5
  7

 75
    16
147
1.0
148
0.0
149
0.0
100
AcDbLayout
  1
Layout2
 70
     1
 71
     2
 10
0.0
 20
0.0
 11
0.0
 21
0.0
 12
0.0
 22
0.0
 32
0.0
 14
0.0
 24
0.0
 34
0.0
 15
0.0
 25
0.0
 35
0.0
146
0.0
 13
0.0
 23
0.0
 33
0.0
 16
1.0
 26
0.0
 36
0.0
 17
0.0
 27
1.0
 37
0.0
 76
     0
330
23
  0
LAYOUT
  5
22
102
{ACAD_REACTORS
330
1A
102
}
330
1A
100
AcDbPlotSettings
  1

  2
none_device
  4
Letter_(8.50_x_11.00_Inches)
  6

 40
6.35
 41
6.35
 42
6.35000508
 43
6.35000508
 44
215.9
 45
279.4
 46
0.0
 47
0.0
 48
0.0
 49
0.0
140
0.0
141
0.0
142
1.0
143
1.0
 70
  1712
 72
     0
 73
     0
 74
     0
  7

 75
     0
147
1.0
148
0.0
149
0.0
100
AcDbLayout
  1
Model
 70
     1
 71
     0
 10
0.0
 20
0.0
 11
16.5354330709
 21
11.6929133858
 12
0.0
 22
0.0
 32
0.0
 14
0.0
 24
0.0
 34
0.0
 15
16.5354330709
 25
11.6929133858
 35
0.0
146
0.0
 13
0.0
 23
0.0
 33
0.0
 16
1.0
 26
0.0
 36
0.0
 17
0.0
 27
1.0
 37
0.0
 76
     0
330
1F
331
29
  0
MLINESTYLE
  5
18
102
{ACAD_REACTORS
330
17
102
}
330
17
100
AcDbMlineStyle
  2
Standard
 70
     0
  3

 62
   256
 51
90.0
 52
90.0
 71
     2
 49
0.5
 62
   256
  6
BYLAYER
 49
-0.5
 62
   256
  6
BYLAYER
  0
ACDBPLACEHOLDER
  5
F
102
{ACAD_REACTORS
330
E
102
}
330
E
  0
SCALE
  5
48
102
{ACAD_REACTORS
330
47
102
}
330
47
100
AcDbScale
 70
     0
300
1:1
140
1.0
141
1.0
290
     1
  0
SCALE
  5
49
102
{ACAD_REACTORS
330
47
102
}
330
47
100
AcDbScale
 70
     0
300
1:2
140
1.0
141
2.0
290
     0
  0
SCALE
  5
4A
102
{ACAD_REACTORS
330
47
102
}
330
47
100
AcDbScale
 70
     0
300
1:4
140
1.0
141
4.0
290
     0
  0
SCALE
  5
4B
102
{ACAD_REACTORS
330
47
102
}
330
47
100
AcDbScale
 70
     0
300
1:5
140
1.0
141
5.0
290
     0
  0
SCALE
  5
4C
102
{ACAD_REACTORS
330
47
102
}
330
47
100
AcDbScale
 70
     0
300
1:8
140
1.0
141
8.0
290
     0
  0
SCALE
  5
4D
102
{ACAD_REACTORS
330
47
102
}
330
47
100
AcDbScale
 70
     0
300
1:10
140
1.0
141
10.0
290
     0
  0
SCALE
  5
4E
102
{ACAD_REACTORS
330
47
102
}
330
47
100
AcDbScale
 70
     0
300
1:16
140
1.0
141
16.0
290
     0
  0
SCALE
  5
4F
102
{ACAD_REACTORS
330
47
102
}
330
47
100
AcDbScale
 70
     0
300
1:20
140
1.0
141
20.0
290
     0
  0
SCALE
  5
50
102
{ACAD_REACTORS
330
47
102
}
330
47
100
AcDbScale
 70
     0
300
1:30
140
1.0
141
30.0
290
     0
  0
SCALE
  5
51
102
{ACAD_REACTORS
330
47
102
}
330
47
100
AcDbScale
 70
     0
300
1:40
140
1.0
141
40.0
290
     0
  0
SCALE
  5
52
102
{ACAD_REACTORS
330
47
102
}
330
47
100
AcDbScale
 70
     0
300
1:50
140
1.0
141
50.0
290
     0
  0
SCALE
  5
53
102
{ACAD_REACTORS
330
47
102
}
330
47
100
AcDbScale
 70
     0
300
1:100
140
1.0
141
100.0
290
     0
  0
SCALE
  5
54
102
{ACAD_REACTORS
330
47
102
}
330
47
100
AcDbScale
 70
     0
300
2:1
140
2.0
141
1.0
290
     0
  0
SCALE
  5
55
102
{ACAD_REACTORS
330
47
102
}
330
47
100
AcDbScale
 70
     0
300
4:1
140
4.0
141
1.0
290
     0
  0
SCALE
  5
56
102
{ACAD_REACTORS
330
47
102
}
330
47
100
AcDbScale
 70
     0
300
8:1
140
8.0
141
1.0
290
     0
  0
SCALE
  5
57
102
{ACAD_REACTORS
330
47
102
}
330
47
100
AcDbScale
 70
     0
300
10:1
140
10.0
141
1.0
290
     0
  0
SCALE
  5
58
102
{ACAD_REACTORS
330
47
102
}
330
47
100
AcDbScale
 70
     0
300
100:1
140
100.0
141
1.0
290
     0
  0
SCALE
  5
59
102
{ACAD_REACTORS
330
47
102
}
330
47
100
AcDbScale
 70
     0
300
1/128" = 1'-0"
140
0.0078125
141
12.0
290
     0
  0
SCALE
  5
5A
102
{ACAD_REACTORS
330
47
102
}
330
47
100
AcDbScale
 70
     0
300
1/64" = 1'-0"
140
0.015625
141
12.0
290
     0
  0
SCALE
  5
5B
102
{ACAD_REACTORS
330
47
102
}
330
47
100
AcDbScale
 70
     0
300
1/32" = 1'-0"
140
0.03125
141
12.0
290
     0
  0
SCALE
  5
5C
102
{ACAD_REACTORS
330
47
102
}
330
47
100
AcDbScale
 70
     0
300
1/16" = 1'-0"
140
0.0625
141
12.0
290
     0
  0
SCALE
  5
5D
102
{ACAD_REACTORS
330
47
102
}
330
47
100
AcDbScale
 70
     0
300
3/32" = 1'-0"
140
0.09375
141
12.0
290
     0
  0
SCALE
  5
5E
102
{ACAD_REACTORS
330
47
102
}
330
47
100
AcDbScale
 70
     0
300
1/8" = 1'-0"
140
0.125
141
12.0
290
     0
  0
SCALE
  5
5F
102
{ACAD_REACTORS
330
47
102
}
330
47
100
AcDbScale
 70
     0
300
3/16" = 1'-0"
140
0.1875
141
12.0
290
     0
  0
SCALE
  5
60
102
{ACAD_REACTORS
330
47
102
}
330
47
100
AcDbScale
 70
     0
300
1/4" = 1'-0"
140
0.25
141
12.0
290
     0
  0
SCALE
  5
61
102
{ACAD_REACTORS
330
47
102
}
330
47
100
AcDbScale
 70
     0
300
3/8" = 1'-0"
140
0.375
141
12.0
290
     0
  0
SCALE
  5
62
102
{ACAD_REACTORS
330
47
102
}
330
47
100
AcDbScale
 70
     0
300
1/2" = 1'-0"
140
0.5
141
12.0
290
     0
  0
SCALE
  5
63
102
{ACAD_REACTORS
330
47
102
}
330
47
100
AcDbScale
 70
     0
300
3/4" = 1'-0"
140
0.75
141
12.0
290
     0
  0
SCALE
  5
64
102
{ACAD_REACTORS
330
47
102
}
330
47
100
AcDbScale
 70
     0
300
1" = 1'-0"
140
1.0
141
12.0
290
     0
  0
SCALE
  5
65
102
{ACAD_REACTORS
330
47
102
}
330
47
100
AcDbScale
 70
     0
300
1-1/2" = 1'-0"
140
1.5
141
12.0
290
     0
  0
SCALE
  5
66
102
{ACAD_REACTORS
330
47
102
}
330
47
100
AcDbScale
 70
     0
300
3" = 1'-0"
140
3.0
141
12.0
290
     0
  0
SCALE
  5
67
102
{ACAD_REACTORS
330
47
102
}
330
47
100
AcDbScale
 70
     0
300
6" = 1'-0"
140
6.0
141
12.0
290
     0
  0
SCALE
  5
68
102
{ACAD_REACTORS
330
47
102
}
330
47
100
AcDbScale
 70
     0
300
1'-0" = 1'-0"
140
12.0
141
12.0
290
     0
  0
ENDSEC
  0
EOF
