  0
SECTION
  2
HEADER
  9
$ACADVER
  1
AC1015
  9
$ACADMAINTVER
 70
     6
  9
$DWGCODEPAGE
  3
ANSI_1251
  9
$INSBASE
 10
0.0
 20
0.0
 30
0.0
  9
$EXTMIN
 10
0.0
 20
0.0
 30
0.0
  9
$EXTMAX
 10
16.5354330709
 20
11.6929133858
 30
0.0
  9
$LIMMIN
 10
0.0
 20
0.0
  9
$LIMMAX
 10
16.5354330709
 20
11.6929133858
  9
$ORTHOMODE
 70
     0
  9
$REGENMODE
 70
     1
  9
$FILLMODE
 70
     1
  9
$QTEXTMODE
 70
     0
  9
$MIRRTEXT
 70
     1
  9
$LTSCALE
 40
1.0
  9
$ATTMODE
 70
     1
  9
$TEXTSIZE
 40
0.1377952756
  9
$TRACEWID
 40
0.05
  9
$TEXTSTYLE
  7
Standard
  9
$CLAYER
  8
0
  9
$CELTYPE
  6
ByLayer
  9
$CECOLOR
 62
   256
  9
$CELTSCALE
 40
1.0
  9
$DISPSILH
 70
     0
  9
$DIMSCALE
 40
1.0
  9
$DIMASZ
 40
0.13
  9
$DIMEXO
 40
0.1
  9
$DIMDLI
 40
0.38
  9
$DIMRND
 40
0.0
  9
$DIMDLE
 40
0.0
  9
$DIMEXE
 40
0.0393700787
  9
$DIMTP
 40
0.0
  9
$DIMTM
 40
0.0
  9
$DIMTXT
 40
0.1377952756
  9
$DIMCEN
 40
0.09
  9
$DIMTSZ
 40
0.0
  9
$DIMTOL
 70
     0
  9
$DIMLIM
 70
     0
  9
$DIMTIH
 70
     1
  9
$DIMTOH
 70
     1
  9
$DIMSE1
 70
     0
  9
$DIMSE2
 70
     0
  9
$DIMTAD
 70
     1
  9
$DIMZIN
 70
     0
  9
$DIMBLK
  1

  9
$DIMASO
 70
     1
  9
$DIMSHO
 70
     1
  9
$DIMPOST
  1

  9
$DIMAPOST
  1

  9
$DIMALT
 70
     0
  9
$DIMALTD
 70
     2
  9
$DIMALTF
 40
25.4
  9
$DIMLFAC
 40
1.0
  9
$DIMTOFL
 70
     0
  9
$DIMTVP
 40
0.0
  9
$DIMTIX
 70
     0
  9
$DIMSOXD
 70
     0
  9
$DIMSAH
 70
     0
  9
$DIMBLK1
  1

  9
$DIMBLK2
  1

  9
$DIMSTYLE
  2
Standard
  9
$DIMCLRD
 70
     0
  9
$DIMCLRE
 70
     0
  9
$DIMCLRT
 70
     0
  9
$DIMTFAC
 40
1.0
  9
$DIMGAP
 40
0.06
  9
$DIMJUST
 70
     0
  9
$DIMSD1
 70
     0
  9
$DIMSD2
 70
     0
  9
$DIMTOLJ
 70
     1
  9
$DIMTZIN
 70
     0
  9
$DIMALTZ
 70
     0
  9
$DIMALTTZ
 70
     0
  9
$DIMUPT
 70
     0
  9
$DIMDEC
 70
     2
  9
$DIMTDEC
 70
     2
  9
$DIMALTU
 70
     2
  9
$DIMALTTD
 70
     2
  9
$DIMTXSTY
  7
Standard
  9
$DIMAUNIT
 70
     0
  9
$DIMADEC
 70
     2
  9
$DIMALTRND
 40
0.0
  9
$DIMAZIN
 70
     0
  9
$DIMDSEP
 70
    46
  9
$DIMATFIT
 70
     3
  9
$DIMFRAC
 70
     0
  9
$DIMLDRBLK
  1

  9
$DIMLUNIT
 70
     2
  9
$DIMLWD
 70
    -2
  9
$DIMLWE
 70
    -2
  9
$DIMTMOVE
 70
     0
  9
$LUNITS
 70
     2
  9
$LUPREC
 70
     2
  9
$SKETCHINC
 40
0.1
  9
$FILLETRAD
 40
0.5
  9
$AUNITS
 70
     0
  9
$AUPREC
 70
     2
  9
$MENU
  1
.
  9
$ELEVATION
 40
0.0
  9
$PELEVATION
 40
0.0
  9
$THICKNESS
 40
0.0
  9
$LIMCHECK
 70
     0
  9
$CHAMFERA
 40
0.0
  9
$CHAMFERB
 40
0.0
  9
$CHAMFERC
 40
0.0
  9
$CHAMFERD
 40
0.0
  9
$SKPOLY
 70
     0
  9
$TDCREATE
 40
2458226.133867072
  9
$TDUCREATE
 40
2458225.967200405
  9
$TDUPDATE
 40
2458226.133868599
  9
$TDUUPDATE
 40
2458225.967201933
  9
$TDINDWG
 40
0.0000000116
  9
$TDUSRTIMER
 40
0.0000000116
  9
$USRTIMER
 70
     1
  9
$ANGBASE
 50
0.0
  9
$ANGDIR
 70
     0
  9
$PDMODE
 70
     0
  9
$PDSIZE
 40
-1.0
  9
$PLINEWID
 40
0.0
  9
$SPLFRAME
 70
     0
  9
$SPLINETYPE
 70
     6
  9
$SPLINESEGS
 70
     8
  9
$HANDSEED
  5
23C
  9
$SURFTAB1
 70
     6
  9
$SURFTAB2
 70
     6
  9
$SURFTYPE
 70
     6
  9
$SURFU
 70
     6
  9
$SURFV
 70
     6
  9
$UCSBASE
  2

  9
$UCSNAME
  2

  9
$UCSORG
 10
0.0
 20
0.0
 30
0.0
  9
$UCSXDIR
 10
1.0
 20
0.0
 30
0.0
  9
$UCSYDIR
 10
0.0
 20
1.0
 30
0.0
  9
$UCSORTHOREF
  2

  9
$UCSORTHOVIEW
 70
     0
  9
$UCSORGTOP
 10
0.0
 20
0.0
 30
0.0
  9
$UCSORGBOTTOM
 10
0.0
 20
0.0
 30
0.0
  9
$UCSORGLEFT
 10
0.0
 20
0.0
 30
0.0
  9
$UCSORGRIGHT
 10
0.0
 20
0.0
 30
0.0
  9
$UCSORGFRONT
 10
0.0
 20
0.0
 30
0.0
  9
$UCSORGBACK
 10
0.0
 20
0.0
 30
0.0
  9
$PUCSBASE
  2

  9
$PUCSNAME
  2

  9
$PUCSORG
 10
0.0
 20
0.0
 30
0.0
  9
$PUCSXDIR
 10
1.0
 20
0.0
 30
0.0
  9
$PUCSYDIR
 10
0.0
 20
1.0
 30
0.0
  9
$PUCSORTHOREF
  2

  9
$PUCSORTHOVIEW
 70
     0
  9
$PUCSORGTOP
 10
0.0
 20
0.0
 30
0.0
  9
$PUCSORGBOTTOM
 10
0.0
 20
0.0
 30
0.0
  9
$PUCSORGLEFT
 10
0.0
 20
0.0
 30
0.0
  9
$PUCSORGRIGHT
 10
0.0
 20
0.0
 30
0.0
  9
$PUCSORGFRONT
 10
0.0
 20
0.0
 30
0.0
  9
$PUCSORGBACK
 10
0.0
 20
0.0
 30
0.0
  9
$USERI1
 70
     0
  9
$USERI2
 70
     0
  9
$USERI3
 70
     0
  9
$USERI4
 70
     0
  9
$USERI5
 70
     0
  9
$USERR1
 40
0.0
  9
$USERR2
 40
0.0
  9
$USERR3
 40
0.0
  9
$USERR4
 40
0.0
  9
$USERR5
 40
0.0
  9
$WORLDVIEW
 70
     1
  9
$SHADEDGE
 70
     3
  9
$SHADEDIF
 70
    70
  9
$TILEMODE
 70
     1
  9
$MAXACTVP
 70
    64
  9
$PINSBASE
 10
0.0
 20
0.0
 30
0.0
  9
$PLIMCHECK
 70
     0
  9
$PEXTMIN
 10
1.0000000000E+20
 20
1.0000000000E+20
 30
1.0000000000E+20
  9
$PEXTMAX
 10
-1.0000000000E+20
 20
-1.0000000000E+20
 30
-1.0000000000E+20
  9
$PLIMMIN
 10
0.0
 20
0.0
  9
$PLIMMAX
 10
12.0
 20
9.0
  9
$UNITMODE
 70
     0
  9
$VISRETAIN
 70
     1
  9
$PLINEGEN
 70
     0
  9
$PSLTSCALE
 70
     1
  9
$TREEDEPTH
 70
  3020
  9
$CMLSTYLE
  2
Standard
  9
$CMLJUST
 70
     0
  9
$CMLSCALE
 40
1.0
  9
$PROXYGRAPHICS
 70
     1
  9
$MEASUREMENT
 70
     0
  9
$CELWEIGHT
370
    -1
  9
$ENDCAPS
280
     0
  9
$JOINSTYLE
280
     0
  9
$LWDISPLAY
290
     1
  9
$INSUNITS
 70
     1
  9
$HYPERLINKBASE
  1

  9
$STYLESHEET
  1

  9
$XEDIT
290
     1
  9
$CEPSNTYPE
380
     0
  9
$PSTYLEMODE
290
     1
  9
$FINGERPRINTGUID
  2
{D56C2200-49AE-4074-B75E-F65FE795B122}
  9
$VERSIONGUID
  2
{FAEB1C32-E019-11D5-929B-00C0DF256EC4}
  9
$EXTNAMES
290
     1
  9
$PSVPSCALE
 40
0.0
  9
$OLESTARTUP
290
     0
  0
ENDSEC
  0
SECTION
  2
CLASSES
  0
CLASS
  1
ACDBDICTIONARYWDFLT
  2
AcDbDictionaryWithDefault
  3
ObjectDBX Classes
 90
        0
280
     0
281
     0
  0
CLASS
  1
VISUALSTYLE
  2
AcDbVisualStyle
  3
ObjectDBX Classes
 90
     4095
280
     0
281
     0
  0
CLASS
  1
MATERIAL
  2
AcDbMaterial
  3
ObjectDBX Classes
 90
     1153
280
     0
281
     0
  0
CLASS
  1
SCALE
  2
AcDbScale
  3
ObjectDBX Classes
 90
     1153
280
     0
281
     0
  0
CLASS
  1
TABLESTYLE
  2
AcDbTableStyle
  3
ObjectDBX Classes
 90
     4095
280
     0
281
     0
  0
CLASS
  1
MLEADERSTYLE
  2
AcDbMLeaderStyle
  3
ACDB_MLEADERSTYLE_CLASS
 90
     4095
280
     0
281
     0
  0
CLASS
  1
SUN
  2
AcDbSun
  3
SCENEOE
 90
     1153
280
     0
281
     0
  0
CLASS
  1
ACDBPLACEHOLDER
  2
AcDbPlaceHolder
  3
ObjectDBX Classes
 90
        0
280
     0
281
     0
  0
CLASS
  1
LAYOUT
  2
AcDbLayout
  3
ObjectDBX Classes
 90
        0
280
     0
281
     0
  0
ENDSEC
  0
SECTION
  2
TABLES
  0
TABLE
  2
VPORT
  5
8
330
0
100
AcDbSymbolTable
 70
     1
  0
VPORT
  5
29
330
8
100
AcDbSymbolTableRecord
100
AcDbViewportTableRecord
  2
*Active
 70
     0
 10
0.0
 20
0.0
 11
1.0
 21
1.0
 12
8.2677165354
 22
5.8464566929
 13
0.0
 23
0.0
 14
0.5
 24
0.5
 15
0.5
 25
0.5
 16
0.0
 26
0.0
 36
1.0
 17
0.0
 27
0.0
 37
0.0
 40
11.6929133858
 41
1.4141414141
 42
50.0
 43
0.0
 44
0.0
 50
0.0
 51
0.0
 71
     0
 72
  2000
 73
     1
 74
     3
 75
     0
 76
     0
 77
     0
 78
     0
281
     0
 65
     1
110
0.0
120
0.0
130
0.0
111
1.0
121
0.0
131
0.0
112
0.0
122
1.0
132
0.0
 79
     0
146
0.0
  0
ENDTAB
  0
TABLE
  2
LTYPE
  5
5
330
0
100
AcDbSymbolTable
 70
     6
  0
LTYPE
  5
14
330
5
100
AcDbSymbolTableRecord
100
AcDbLinetypeTableRecord
  2
ByBlock
 70
     0
  3

 72
    65
 73
     0
 40
0.0
  0
LTYPE
  5
15
330
5
100
AcDbSymbolTableRecord
100
AcDbLinetypeTableRecord
  2
ByLayer
 70
     0
  3

 72
    65
 73
     0
 40
0.0
  0
LTYPE
  5
16
330
5
100
AcDbSymbolTableRecord
100
AcDbLinetypeTableRecord
  2
Continuous
 70
     0
  3
Solid line
 72
    65
 73
     0
 40
0.0
  0
LTYPE
  5
6E
330
5
100
AcDbSymbolTableRecord
100
AcDbLinetypeTableRecord
  2
HIDDEN
 70
     0
  3
Hidden __ __ __ __ __ __ __ __ __ __ __ __ __ __
 72
    65
 73
     2
 40
0.075
 49
0.05
 74
     0
 49
-0.025
 74
     0
  0
LTYPE
  5
6F
330
5
100
AcDbSymbolTableRecord
100
AcDbLinetypeTableRecord
  2
PHANTOM
 70
     0
  3
Phantom ______  __  __  ______  __  __  ______
 72
    65
 73
     6
 40
0.5
 49
0.25
 74
     0
 49
-0.05
 74
     0
 49
0.05
 74
     0
 49
-0.05
 74
     0
 49
0.05
 74
     0
 49
-0.05
 74
     0
  0
LTYPE
  5
70
330
5
100
AcDbSymbolTableRecord
100
AcDbLinetypeTableRecord
  2
CENTER
 70
     0
  3
Center ____ _ ____ _ ____ _ ____ _ ____ _ ____
 72
    65
 73
     4
 40
0.4
 49
0.25
 74
     0
 49
-0.05
 74
     0
 49
0.05
 74
     0
 49
-0.05
 74
     0
  0
LTYPE
  5
71
330
5
100
AcDbSymbolTableRecord
100
AcDbLinetypeTableRecord
  2
CENTERX2
 70
     0
  3
Center (2x) ________  __  ________  __  _____
 72
    65
 73
     4
 40
0.8
 49
0.5
 74
     0
 49
-0.1
 74
     0
 49
0.1
 74
     0
 49
-0.1
 74
     0
  0
LTYPE
  5
72
330
5
100
AcDbSymbolTableRecord
100
AcDbLinetypeTableRecord
  2
DOT2
 70
     0
  3
Dot (.5x) ........................................
 72
    65
 73
     2
 40
0.025
 49
0.0
 74
     0
 49
-0.025
 74
     0
  0
ENDTAB
  0
TABLE
  2
LAYER
  5
2
330
0
100
AcDbSymbolTable
 70
     5
  0
LAYER
  5
10
330
2
100
AcDbSymbolTableRecord
100
AcDbLayerTableRecord
  2
0
 70
     0
 62
     7
  6
Continuous
370
    -3
390
F
  0
LAYER
  5
73
330
2
100
AcDbSymbolTableRecord
100
AcDbLayerTableRecord
  2
FORMAT
 70
     0
 62
     7
  6
Continuous
370
    -3
390
F
  0
LAYER
  5
74
330
2
100
AcDbSymbolTableRecord
100
AcDbLayerTableRecord
  2
SLD-0
 70
     0
 62
   179
  6
Continuous
370
    -3
390
F
  0
LAYER
  5
75
330
2
100
AcDbSymbolTableRecord
100
AcDbLayerTableRecord
  2
AM_6
 70
     0
 62
     2
  6
Continuous
370
    35
390
F
  0
LAYER
  5
76
330
2
100
AcDbSymbolTableRecord
100
AcDbLayerTableRecord
  2
THINM
 70
     0
 62
     6
  6
Continuous
370
    -3
390
F
  0
ENDTAB
  0
TABLE
  2
STYLE
  5
3
330
0
100
AcDbSymbolTable
 70
     5
  0
STYLE
  5
11
330
3
100
AcDbSymbolTableRecord
100
AcDbTextStyleTableRecord
  2
Standard
 70
     0
 40
0.0
 41
1.0
 50
0.0
 71
     0
 42
0.1377952756
  3
txt
  4

  0
STYLE
  5
7D
330
3
100
AcDbSymbolTableRecord
100
AcDbTextStyleTableRecord
  2
SLDTEXTSTYLE0
 70
     0
 40
0.0
 41
0.605
 50
0.0
 71
     0
 42
0.1377952756
  3
TXT
  4

  0
STYLE
  5
144
330
3
100
AcDbSymbolTableRecord
100
AcDbTextStyleTableRecord
  2
SLDTEXTSTYLE1
 70
     0
 40
0.0
 41
0.75
 50
0.0
 71
     0
 42
0.1377952756
  3
TXT
  4

  0
STYLE
  5
14A
330
3
100
AcDbSymbolTableRecord
100
AcDbTextStyleTableRecord
  2
SLDTEXTSTYLE2
 70
     0
 40
0.0
 41
0.6666666667
 50
0.0
 71
     0
 42
0.1377952756
  3
TXT
  4

  0
STYLE
  5
1BB
330
3
100
AcDbSymbolTableRecord
100
AcDbTextStyleTableRecord
  2
SLDTEXTSTYLE3
 70
     0
 40
0.0
 41
0.6875
 50
0.0
 71
     0
 42
0.1377952756
  3
TXT
  4

  0
ENDTAB
  0
TABLE
  2
VIEW
  5
6
330
0
100
AcDbSymbolTable
 70
     0
  0
ENDTAB
  0
TABLE
  2
UCS
  5
7
330
0
100
AcDbSymbolTable
 70
     0
  0
ENDTAB
  0
TABLE
  2
APPID
  5
9
330
0
100
AcDbSymbolTable
 70
     1
  0
APPID
  5
12
330
9
100
AcDbSymbolTableRecord
100
AcDbRegAppTableRecord
  2
ACAD
 70
     0
  0
ENDTAB
  0
TABLE
  2
DIMSTYLE
  5
A
330
0
100
AcDbSymbolTable
 70
     1
100
AcDbDimStyleTable
  0
DIMSTYLE
105
27
330
A
100
AcDbSymbolTableRecord
100
AcDbDimStyleTableRecord
  2
Standard
 70
     0
178
     0
340
11
  0
ENDTAB
  0
TABLE
  2
BLOCK_RECORD
  5
1
330
0
100
AcDbSymbolTable
 70
     9
  0
BLOCK_RECORD
  5
1F
330
1
100
AcDbSymbolTableRecord
100
AcDbBlockTableRecord
  2
*Model_Space
340
22
  0
BLOCK_RECORD
  5
1B
330
1
100
AcDbSymbolTableRecord
100
AcDbBlockTableRecord
  2
*Paper_Space
340
1E
  0
BLOCK_RECORD
  5
23
330
1
100
AcDbSymbolTableRecord
100
AcDbBlockTableRecord
  2
*Paper_Space0
340
26
  0
BLOCK_RECORD
  5
77
330
1
100
AcDbSymbolTableRecord
100
AcDbBlockTableRecord
  2
Block3
340
0
102
{BLKREFS
331
222
102
}
  0
BLOCK_RECORD
  5
7A
330
1
100
AcDbSymbolTableRecord
100
AcDbBlockTableRecord
  2
SW_NOTE_0
340
0
102
{BLKREFS
331
82
102
}
  0
BLOCK_RECORD
  5
83
330
1
100
AcDbSymbolTableRecord
100
AcDbBlockTableRecord
  2
SW_NOTE_1
340
0
102
{BLKREFS
331
89
102
}
  0
BLOCK_RECORD
  5
8A
330
1
100
AcDbSymbolTableRecord
100
AcDbBlockTableRecord
  2
Block9
340
0
102
{BLKREFS
331
221
102
}
  0
BLOCK_RECORD
  5
F6
330
1
100
AcDbSymbolTableRecord
100
AcDbBlockTableRecord
  2
Block13_
340
0
102
{BLKREFS
331
223
102
}
  0
BLOCK_RECORD
  5
14D
330
1
100
AcDbSymbolTableRecord
100
AcDbBlockTableRecord
  2
Block1
340
0
102
{BLKREFS
331
224
102
}
  0
BLOCK_RECORD
  5
1BD
330
1
100
AcDbSymbolTableRecord
100
AcDbBlockTableRecord
  2
Block14_
340
0
102
{BLKREFS
331
225
102
}
  0
BLOCK_RECORD
  5
226
330
1
100
AcDbSymbolTableRecord
100
AcDbBlockTableRecord
  2
SW_TABLEANNOTATION_0
340
0
102
{BLKREFS
331
23B
102
}
  0
ENDTAB
  0
ENDSEC
  0
SECTION
  2
BLOCKS
  0
BLOCK
  5
20
330
1F
100
AcDbEntity
  8
0
100
AcDbBlockBegin
  2
*Model_Space
 70
     0
 10
0.0
 20
0.0
 30
0.0
  3
*Model_Space
  1

  0
ENDBLK
  5
21
330
1F
100
AcDbEntity
  8
0
100
AcDbBlockEnd
  0
BLOCK
  5
1C
330
1B
100
AcDbEntity
 67
     1
  8
0
100
AcDbBlockBegin
  2
*Paper_Space
 70
     0
 10
0.0
 20
0.0
 30
0.0
  3
*Paper_Space
  1

  0
ENDBLK
  5
1D
330
1B
100
AcDbEntity
 67
     1
  8
0
100
AcDbBlockEnd
  0
BLOCK
  5
24
330
23
100
AcDbEntity
  8
0
100
AcDbBlockBegin
  2
*Paper_Space0
 70
     0
 10
0.0
 20
0.0
 30
0.0
  3
*Paper_Space0
  1

  0
ENDBLK
  5
25
330
23
100
AcDbEntity
  8
0
100
AcDbBlockEnd
  0
BLOCK
  5
78
330
77
100
AcDbEntity
  8
0
100
AcDbBlockBegin
  2
Block3
 70
     0
 10
0.0
 20
0.0
 30
0.0
  3
Block3
  1

  0
INSERT
  5
82
330
77
100
AcDbEntity
  8
FORMAT
 62
     7
100
AcDbBlockReference
  2
SW_NOTE_0
 10
13.0680984367
 20
0.7426152712
 30
0.0
  0
INSERT
  5
89
330
77
100
AcDbEntity
  8
FORMAT
 62
     7
100
AcDbBlockReference
  2
SW_NOTE_1
 10
2.4173866861
 20
0.6725994797
 30
0.0
  0
INSERT
  5
221
330
77
100
AcDbEntity
  8
0
  6
Continuous
 62
     7
100
AcDbBlockReference
  2
Block9
 10
0.0
 20
0.0323394931
 30
0.0
  0
ENDBLK
  5
79
330
77
100
AcDbEntity
  8
0
100
AcDbBlockEnd
  0
BLOCK
  5
7B
330
7A
100
AcDbEntity
  8
0
100
AcDbBlockBegin
  2
SW_NOTE_0
 70
     0
 10
0.0
 20
0.0
 30
0.0
  3
SW_NOTE_0
  1

  0
MTEXT
  5
7E
330
7A
100
AcDbEntity
  8
FORMAT
 62
     0
100
AcDbMText
 10
2.3974609375
 20
0.2014168343
 30
0.0
 40
0.15625
 41
0.0
 71
     3
 72
     1
  1
Panel Edge LED - Details
  7
SLDTEXTSTYLE0
 73
     1
 44
1.0
  0
MTEXT
  5
7F
330
7A
100
AcDbEntity
  8
FORMAT
 62
     0
100
AcDbMText
 10
2.4181139798
 20
-0.0462865908
 30
0.0
 40
0.15625
 41
0.0
 71
     3
 72
     1
  1
Available for 1/2", 3/4" & 1" Panels
  7
SLDTEXTSTYLE0
 73
     1
 44
1.0
  0
MTEXT
  5
80
330
7A
100
AcDbEntity
  8
FORMAT
 62
     0
100
AcDbMText
 10
2.4348960336
 20
-0.2939899977
 30
0.0
 40
0.15625
 41
0.0
 71
     3
 72
     1
  1
Custom Anodized and Powder Coated Finishes Available
  7
SLDTEXTSTYLE0
 73
     1
 44
1.0
  0
MTEXT
  5
81
330
7A
100
AcDbEntity
  8
FORMAT
 62
     0
100
AcDbMText
 10
2.3907699336
 20
-0.5416934045
 30
0.0
 40
0.15625
 41
0.0
 71
     3
 72
     1
  1
DWPanels.com
  7
SLDTEXTSTYLE0
 73
     1
 44
1.0
  0
ENDBLK
  5
7C
330
7A
100
AcDbEntity
  8
0
100
AcDbBlockEnd
  0
BLOCK
  5
84
330
83
100
AcDbEntity
  8
0
100
AcDbBlockBegin
  2
SW_NOTE_1
 70
     0
 10
0.0
 20
0.0
 30
0.0
  3
SW_NOTE_1
  1

  0
MTEXT
  5
86
330
83
100
AcDbEntity
  8
FORMAT
 62
     0
100
AcDbMText
 10
0.0
 20
0.2417002012
 30
0.0
 40
0.1875
 41
0.0
 71
     1
 72
     1
  1
Decorative
  7
SLDTEXTSTYLE0
 73
     1
 44
1.0
  0
MTEXT
  5
87
330
83
100
AcDbEntity
  8
FORMAT
 62
     0
100
AcDbMText
 10
0.0
 20
-0.047669881
 30
0.0
 40
0.1875
 41
0.0
 71
     1
 72
     1
  1
Wall
  7
SLDTEXTSTYLE0
 73
     1
 44
1.0
  0
MTEXT
  5
88
330
83
100
AcDbEntity
  8
FORMAT
 62
     0
100
AcDbMText
 10
0.0
 20
-0.3370399631
 30
0.0
 40
0.1875
 41
0.0
 71
     1
 72
     1
  1
Panels     Systems
  7
SLDTEXTSTYLE0
 73
     1
 44
1.0
  0
ENDBLK
  5
85
330
83
100
AcDbEntity
  8
0
100
AcDbBlockEnd
  0
BLOCK
  5
8B
330
8A
100
AcDbEntity
  8
0
100
AcDbBlockBegin
  2
Block9
 70
     0
 10
0.0
 20
0.0
 30
0.0
  3
Block9
  1

  0
LINE
  5
8D
330
8A
100
AcDbEntity
  8
0
  6
Continuous
 62
     7
370
    18
100
AcDbLine
 10
0.0
 20
1.039171875
 30
0.0
 11
15.4944999933
 21
1.039171875
 31
0.0
  0
SPLINE
  5
8E
330
8A
100
AcDbEntity
  8
0
  6
Continuous
 62
     8
370
     0
100
AcDbSpline
210
0.0
220
0.0
230
1.0
 70
    24
 71
     3
 72
     8
 73
     4
 74
     0
 42
0.000000001
 43
0.00000001
 40
37.0
 40
37.0
 40
37.0
 40
37.0
 40
38.0
 40
38.0
 40
38.0
 40
38.0
 10
1.771964220772605
 20
0.0264862735488503
 30
0.0
 10
1.771964220772605
 20
0.1159242183039175
 30
0.0
 10
1.771964220772605
 20
0.2037081062473845
 30
0.0
 10
1.771964220772605
 20
0.2944888147063214
 30
0.0
  0
SPLINE
  5
8F
330
8A
100
AcDbEntity
  8
0
  6
Continuous
 62
     8
370
     0
100
AcDbSpline
210
0.0
220
0.0
230
1.0
 70
    24
 71
     3
 72
     8
 73
     4
 74
     0
 42
0.000000001
 43
0.00000001
 40
36.0
 40
36.0
 40
36.0
 40
36.0
 40
37.0
 40
37.0
 40
37.0
 40
37.0
 10
1.624299249855472
 20
0.0264862735488503
 30
0.0
 10
1.674864746341027
 20
0.0264862735488503
 30
0.0
 10
1.722299791426324
 20
0.0264862735488503
 30
0.0
 10
1.771964220772605
 20
0.0264862735488503
 30
0.0
  0
SPLINE
  5
90
330
8A
100
AcDbEntity
  8
0
  6
Continuous
 62
     8
370
     0
100
AcDbSpline
210
0.0
220
0.0
230
1.0
 70
    24
 71
     3
 72
     8
 73
     4
 74
     0
 42
0.000000001
 43
0.00000001
 40
35.0
 40
35.0
 40
35.0
 40
35.0
 40
36.0
 40
36.0
 40
36.0
 40
36.0
 10
1.624299249855472
 20
0.3947778716284157
 30
0.0
 10
1.624299249855472
 20
0.2719112658129299
 30
0.0
 10
1.624299249855472
 20
0.1490446215756984
 30
0.0
 10
1.624299249855472
 20
0.0264862735488503
 30
0.0
  0
SPLINE
  5
91
330
8A
100
AcDbEntity
  8
0
  6
Continuous
 62
     8
370
     0
100
AcDbSpline
210
0.0
220
0.0
230
1.0
 70
     8
 71
     3
 72
     8
 73
     4
 74
     0
 42
0.000000001
 43
0.00000001
 40
34.0
 40
34.0
 40
34.0
 40
34.0
 40
35.0
 40
35.0
 40
35.0
 40
35.0
 10
1.617341837371248
 20
0.3961420746749176
 30
0.0
 10
1.619660974865984
 20
0.3956873147115886
 30
0.0
 10
1.621980112360718
 20
0.3952325931699642
 30
0.0
 10
1.624299249855472
 20
0.3947778716284157
 30
0.0
  0
SPLINE
  5
92
330
8A
100
AcDbEntity
  8
0
  6
Continuous
 62
     8
370
     0
100
AcDbSpline
210
0.0
220
0.0
230
1.0
 70
     8
 71
     3
 72
     8
 73
     4
 74
     0
 42
0.000000001
 43
0.00000001
 40
33.0
 40
33.0
 40
33.0
 40
33.0
 40
34.0
 40
34.0
 40
34.0
 40
34.0
 10
1.487154618164736
 20
0.02098166469205
 30
0.0
 10
1.530882578060469
 20
0.1469925921635305
 30
0.0
 10
1.574112284559385
 20
0.2715673142083528
 30
0.0
 10
1.617341837371248
 20
0.3961420746749176
 30
0.0
  0
SPLINE
  5
93
330
8A
100
AcDbEntity
  8
0
  6
Continuous
 62
     8
370
     0
100
AcDbSpline
210
0.0
220
0.0
230
1.0
 70
    24
 71
     3
 72
     8
 73
     4
 74
     0
 42
0.000000001
 43
0.00000001
 40
32.0
 40
32.0
 40
32.0
 40
32.0
 40
33.0
 40
33.0
 40
33.0
 40
33.0
 10
1.358252530020567
 20
0.02098166469205
 30
0.0
 10
1.403594203878849
 20
0.02098166469205
 30
0.0
 10
1.445210042728163
 20
0.02098166469205
 30
0.0
 10
1.487154618164736
 20
0.02098166469205
 30
0.0
  0
SPLINE
  5
94
330
8A
100
AcDbEntity
  8
0
  6
Continuous
 62
     8
370
     0
100
AcDbSpline
210
0.0
220
0.0
230
1.0
 70
     8
 71
     3
 72
     8
 73
     4
 74
     0
 42
0.000000001
 43
0.00000001
 40
31.0
 40
31.0
 40
31.0
 40
31.0
 40
32.0
 40
32.0
 40
32.0
 40
32.0
 10
1.155931220879272
 20
0.6119791219529866
 30
0.0
 10
1.223562895171523
 20
0.4144211890550427
 30
0.0
 10
1.291194723150807
 20
0.2168631793135314
 30
0.0
 10
1.358252530020567
 20
0.02098166469205
 30
0.0
  0
SPLINE
  5
95
330
8A
100
AcDbEntity
  8
0
  6
Continuous
 62
     8
370
     0
100
AcDbSpline
210
0.0
220
0.0
230
1.0
 70
     8
 71
     3
 72
     8
 73
     4
 74
     0
 42
0.000000001
 43
0.00000001
 40
30.0
 40
30.0
 40
30.0
 40
30.0
 40
31.0
 40
31.0
 40
31.0
 40
31.0
 10
1.150680349332222
 20
0.6124822549134179
 30
0.0
 10
1.15243069107691
 20
0.6123145439266341
 30
0.0
 10
1.154180879134584
 20
0.6121468329397722
 30
0.0
 10
1.155931220879272
 20
0.6119791219529866
 30
0.0
  0
SPLINE
  5
96
330
8A
100
AcDbEntity
  8
0
  6
Continuous
 62
     8
370
     0
100
AcDbSpline
210
0.0
220
0.0
230
1.0
 70
     8
 71
     3
 72
     8
 73
     4
 74
     0
 42
0.000000001
 43
0.00000001
 40
29.0
 40
29.0
 40
29.0
 40
29.0
 40
30.0
 40
30.0
 40
30.0
 40
30.0
 10
0.9481694672220798
 20
0.0208614814236237
 30
0.0
 10
1.015951985348072
 20
0.2188830881334553
 30
0.0
 10
1.083316244183653
 20
0.4156826523125666
 30
0.0
 10
1.150680349332222
 20
0.6124822549134179
 30
0.0
  0
SPLINE
  5
97
330
8A
100
AcDbEntity
  8
0
  6
Continuous
 62
     8
370
     0
100
AcDbSpline
210
0.0
220
0.0
230
1.0
 70
    24
 71
     3
 72
     8
 73
     4
 74
     0
 42
0.000000001
 43
0.00000001
 40
28.0
 40
28.0
 40
28.0
 40
28.0
 40
29.0
 40
29.0
 40
29.0
 40
29.0
 10
0.8194283662565629
 20
0.0208614814236237
 30
0.0
 10
0.864205624445552
 20
0.0208614814236237
 30
0.0
 10
0.9058301466128856
 20
0.0208614814236237
 30
0.0
 10
0.9481694672220798
 20
0.0208614814236237
 30
0.0
  0
SPLINE
  5
98
330
8A
100
AcDbEntity
  8
0
  6
Continuous
 62
     8
370
     0
100
AcDbSpline
210
0.0
220
0.0
230
1.0
 70
     8
 71
     3
 72
     8
 73
     4
 74
     0
 42
0.000000001
 43
0.00000001
 40
27.0
 40
27.0
 40
27.0
 40
27.0
 40
28.0
 40
28.0
 40
28.0
 40
28.0
 10
0.6940132066113596
 20
0.3815594795001297
 30
0.0
 10
0.7359666190529646
 20
0.260900280698354
 30
0.0
 10
0.7779199546510239
 20
0.1402411203183612
 30
0.0
 10
0.8194283662565629
 20
0.0208614814236237
 30
0.0
  0
SPLINE
  5
99
330
8A
100
AcDbEntity
  8
0
  6
Continuous
 62
     8
370
     0
100
AcDbSpline
210
0.0
220
0.0
230
1.0
 70
     8
 71
     3
 72
     8
 73
     4
 74
     0
 42
0.000000001
 43
0.00000001
 40
26.0
 40
26.0
 40
26.0
 40
26.0
 40
27.0
 40
27.0
 40
27.0
 40
27.0
 10
0.690171798945296
 20
0.3810893508323517
 30
0.0
 10
0.6914522425528219
 20
0.3812460731955374
 30
0.0
 10
0.6927327630038549
 20
0.3814027571369421
 30
0.0
 10
0.6940132066113596
 20
0.3815594795001297
 30
0.0
  0
SPLINE
  5
9A
330
8A
100
AcDbEntity
  8
0
  6
Continuous
 62
     8
370
     0
100
AcDbSpline
210
0.0
220
0.0
230
1.0
 70
    24
 71
     3
 72
     8
 73
     4
 74
     0
 42
0.000000001
 43
0.00000001
 40
25.0
 40
25.0
 40
25.0
 40
25.0
 40
26.0
 40
26.0
 40
26.0
 40
26.0
 10
0.690171798945296
 20
0.0267215684133154
 30
0.0
 10
0.690171798945296
 20
0.1463832230338764
 30
0.0
 10
0.690171798945296
 20
0.2637362677222606
 30
0.0
 10
0.690171798945296
 20
0.3810893508323517
 30
0.0
  0
SPLINE
  5
9B
330
8A
100
AcDbEntity
  8
0
  6
Continuous
 62
     8
370
     0
100
AcDbSpline
210
0.0
220
0.0
230
1.0
 70
     8
 71
     3
 72
     8
 73
     4
 74
     0
 42
0.000000001
 43
0.00000001
 40
24.0
 40
24.0
 40
24.0
 40
24.0
 40
25.0
 40
25.0
 40
25.0
 40
25.0
 10
0.6665367295018015
 20
0.0248740964567577
 30
0.0
 10
0.673688940314331
 20
0.0248805513126075
 30
0.0
 10
0.6808401521610634
 20
0.0259625081027092
 30
0.0
 10
0.690171798945296
 20
0.0267215684133154
 30
0.0
  0
SPLINE
  5
9C
330
8A
100
AcDbEntity
  8
0
  6
Continuous
 62
     8
370
     0
100
AcDbSpline
210
0.0
220
0.0
230
1.0
 70
     8
 71
     3
 72
     8
 73
     4
 74
     0
 42
0.000000001
 43
0.00000001
 40
23.0
 40
23.0
 40
23.0
 40
23.0
 40
24.0
 40
24.0
 40
24.0
 40
24.0
 10
0.3493110713449961
 20
0.0249956629086091
 30
0.0
 10
0.4550504471755414
 20
0.0244442337945254
 30
0.0
 10
0.5607945873044473
 20
0.0247788873329534
 30
0.0
 10
0.6665367295018015
 20
0.0248740964567577
 30
0.0
  0
SPLINE
  5
9D
330
8A
100
AcDbEntity
  8
0
  6
Continuous
 62
     8
370
     0
100
AcDbSpline
210
0.0
220
0.0
230
1.0
 70
     8
 71
     3
 72
     8
 73
     4
 74
     0
 42
0.000000001
 43
0.00000001
 40
22.0
 40
22.0
 40
22.0
 40
22.0
 40
23.0
 40
23.0
 40
23.0
 40
23.0
 10
0.1884951769118723
 20
0.0601667124091723
 30
0.0
 10
0.2390193315826015
 20
0.0351846528680666
 30
0.0
 10
0.2933691794191386
 20
0.0252873609182086
 30
0.0
 10
0.3493110713449961
 20
0.0249956629086091
 30
0.0
  0
SPLINE
  5
9E
330
8A
100
AcDbEntity
  8
0
  6
Continuous
 62
     8
370
     0
100
AcDbSpline
210
0.0
220
0.0
230
1.0
 70
     8
 71
     3
 72
     8
 73
     4
 74
     0
 42
0.000000001
 43
0.00000001
 40
21.0
 40
21.0
 40
21.0
 40
21.0
 40
22.0
 40
22.0
 40
22.0
 40
22.0
 10
0.0397213155501118
 20
0.285635442003188
 30
0.0
 10
0.0464532307189517
 20
0.1826565160143632
 30
0.0
 10
0.0952553604828298
 20
0.1062695981966055
 30
0.0
 10
0.1884951769118723
 20
0.0601667124091723
 30
0.0
  0
SPLINE
  5
9F
330
8A
100
AcDbEntity
  8
0
  6
Continuous
 62
     8
370
     0
100
AcDbSpline
210
0.0
220
0.0
230
1.0
 70
     8
 71
     3
 72
    11
 73
     7
 74
     0
 42
0.000000001
 43
0.00000001
 40
19.0
 40
19.0
 40
19.0
 40
19.0
 40
20.0
 40
20.0
 40
20.0
 40
21.0
 40
21.0
 40
21.0
 40
21.0
 10
0.3734456236816819
 20
0.5938796293056314
 30
0.0
 10
0.3392457226124493
 20
0.5927894118368822
 30
0.0
 10
0.3044681119446659
 20
0.5904522161144544
 30
0.0
 10
0.2711936758329829
 20
0.5830685141918284
 30
0.0
 10
0.130182662331542
 20
0.5517777167577067
 30
0.0
 10
0.0288964838676611
 20
0.451223703371688
 30
0.0
 10
0.0397213155501118
 20
0.285635442003188
 30
0.0
  0
SPLINE
  5
A0
330
8A
100
AcDbEntity
  8
0
  6
Continuous
 62
     8
370
     0
100
AcDbSpline
210
0.0
220
0.0
230
1.0
 70
     8
 71
     3
 72
     8
 73
     4
 74
     0
 42
0.000000001
 43
0.00000001
 40
18.0
 40
18.0
 40
18.0
 40
18.0
 40
19.0
 40
19.0
 40
19.0
 40
19.0
 10
0.5404106135908139
 20
0.5943418430906087
 30
0.0
 10
0.4822031825268198
 20
0.5943418430906087
 30
0.0
 10
0.4277765295900185
 20
0.595611528605035
 30
0.0
 10
0.3734456236816819
 20
0.5938796293056314
 30
0.0
  0
SPLINE
  5
A1
330
8A
100
AcDbEntity
  8
0
  6
Continuous
 62
     8
370
     0
100
AcDbSpline
210
0.0
220
0.0
230
1.0
 70
    24
 71
     3
 72
    11
 73
     7
 74
     0
 42
0.000000001
 43
0.00000001
 40
16.0
 40
16.0
 40
16.0
 40
16.0
 40
17.0
 40
17.0
 40
17.0
 40
18.0
 40
18.0
 40
18.0
 40
18.0
 10
0.5404106135908139
 20
0.8636909324954444
 30
0.0
 10
0.5404106135908139
 20
0.817356728495797
 30
0.0
 10
0.5404106135908139
 20
0.7730567262112387
 30
0.0
 10
0.5404106135908139
 20
0.7287567239266802
 30
0.0
 10
0.5404106135908139
 20
0.6846439124617284
 30
0.0
 10
0.5404106135908139
 20
0.6405311009968171
 30
0.0
 10
0.5404106135908139
 20
0.5943418430906087
 30
0.0
  0
SPLINE
  5
A2
330
8A
100
AcDbEntity
  8
0
  6
Continuous
 62
     8
370
     0
100
AcDbSpline
210
0.0
220
0.0
230
1.0
 70
    24
 71
     3
 72
     8
 73
     4
 74
     0
 42
0.000000001
 43
0.00000001
 40
15.0
 40
15.0
 40
15.0
 40
15.0
 40
16.0
 40
16.0
 40
16.0
 40
16.0
 10
0.6877511511579565
 20
0.8636909324954444
 30
0.0
 10
0.637656013870717
 20
0.8636909324954444
 30
0.0
 10
0.5894939522235331
 20
0.8636909324954444
 30
0.0
 10
0.5404106135908139
 20
0.8636909324954444
 30
0.0
  0
SPLINE
  5
A3
330
8A
100
AcDbEntity
  8
0
  6
Continuous
 62
     8
370
     0
100
AcDbSpline
210
0.0
220
0.0
230
1.0
 70
     8
 71
     3
 72
     8
 73
     4
 74
     0
 42
0.000000001
 43
0.00000001
 40
14.0
 40
14.0
 40
14.0
 40
14.0
 40
15.0
 40
15.0
 40
15.0
 40
15.0
 10
0.8851058329401726
 20
0.2508072682978802
 30
0.0
 10
0.8192265751677246
 20
0.4553947313254969
 30
0.0
 10
0.7533473942387846
 20
0.6599822519857083
 30
0.0
 10
0.6877511511579565
 20
0.8636909324954444
 30
0.0
  0
SPLINE
  5
A4
330
8A
100
AcDbEntity
  8
0
  6
Continuous
 62
     8
370
     0
100
AcDbSpline
210
0.0
220
0.0
230
1.0
 70
     8
 71
     3
 72
     8
 73
     4
 74
     0
 42
0.000000001
 43
0.00000001
 40
13.0
 40
13.0
 40
13.0
 40
13.0
 40
14.0
 40
14.0
 40
14.0
 40
14.0
 10
0.8895201859064792
 20
0.2506737911001599
 30
0.0
 10
0.8880487093031957
 20
0.2507182834993876
 30
0.0
 10
0.8865772326999297
 20
0.2507627758986534
 30
0.0
 10
0.8851058329401726
 20
0.2508072682978802
 30
0.0
  0
SPLINE
  5
A5
330
8A
100
AcDbEntity
  8
0
  6
Continuous
 62
     8
370
     0
100
AcDbSpline
210
0.0
220
0.0
230
1.0
 70
     8
 71
     3
 72
     8
 73
     4
 74
     0
 42
0.000000001
 43
0.00000001
 40
12.0
 40
12.0
 40
12.0
 40
12.0
 40
13.0
 40
13.0
 40
13.0
 40
13.0
 10
1.092528091917066
 20
0.8650559423989477
 30
0.0
 10
1.024666348119865
 20
0.6596796037742149
 30
0.0
 10
0.9570933054349351
 20
0.4551767262535064
 30
0.0
 10
0.8895201859064792
 20
0.2506737911001599
 30
0.0
  0
SPLINE
  5
A6
330
8A
100
AcDbEntity
  8
0
  6
Continuous
 62
     8
370
     0
100
AcDbSpline
210
0.0
220
0.0
230
1.0
 70
    24
 71
     3
 72
     8
 73
     4
 74
     0
 42
0.000000001
 43
0.00000001
 40
11.0
 40
11.0
 40
11.0
 40
11.0
 40
12.0
 40
12.0
 40
12.0
 40
12.0
 10
1.218661200588547
 20
0.8650559423989477
 30
0.0
 10
1.175041743745911
 20
0.8650559423989477
 30
0.0
 10
1.134162373211665
 20
0.8650559423989477
 30
0.0
 10
1.092528091917066
 20
0.8650559423989477
 30
0.0
  0
SPLINE
  5
A7
330
8A
100
AcDbEntity
  8
0
  6
Continuous
 62
     8
370
     0
100
AcDbSpline
210
0.0
220
0.0
230
1.0
 70
     8
 71
     3
 72
     8
 73
     4
 74
     0
 42
0.000000001
 43
0.00000001
 40
10.0
 40
10.0
 40
10.0
 40
10.0
 40
11.0
 40
11.0
 40
11.0
 40
11.0
 10
1.421478457821005
 20
0.2512611061389791
 30
0.0
 10
1.353791763566985
 20
0.4561043044078963
 30
0.0
 10
1.286105069312947
 20
0.6609474834658856
 30
0.0
 10
1.218661200588547
 20
0.8650559423989477
 30
0.0
  0
SPLINE
  5
A8
330
8A
100
AcDbEntity
  8
0
  6
Continuous
 62
     8
370
     0
100
AcDbSpline
210
0.0
220
0.0
230
1.0
 70
     8
 71
     3
 72
     8
 73
     4
 74
     0
 42
0.000000001
 43
0.00000001
 40
9.0
 40
9.0
 40
9.0
 40
9.0
 40
10.0
 40
10.0
 40
10.0
 40
10.0
 10
1.426048649449934
 20
0.2506702562981322
 30
0.0
 10
1.424525303469321
 20
0.2508672062450424
 30
0.0
 10
1.423001803801637
 20
0.2510641561920307
 30
0.0
 10
1.421478457821005
 20
0.2512611061389791
 30
0.0
  0
SPLINE
  5
A9
330
8A
100
AcDbEntity
  8
0
  6
Continuous
 62
     8
370
     0
100
AcDbSpline
210
0.0
220
0.0
230
1.0
 70
     8
 71
     3
 72
     8
 73
     4
 74
     0
 42
0.000000001
 43
0.00000001
 40
8.0
 40
8.0
 40
8.0
 40
8.0
 40
9.0
 40
9.0
 40
9.0
 40
9.0
 10
1.62417491703683
 20
0.8659516497025636
 30
0.0
 10
1.557698200880634
 20
0.6595079353460304
 30
0.0
 10
1.491873425165274
 20
0.4550891246383989
 30
0.0
 10
1.426048649449934
 20
0.2506702562981322
 30
0.0
  0
SPLINE
  5
AA
330
8A
100
AcDbEntity
  8
0
  6
Continuous
 62
     8
370
     0
100
AcDbSpline
210
0.0
220
0.0
230
1.0
 70
     8
 71
     3
 72
     8
 73
     4
 74
     0
 42
0.000000001
 43
0.00000001
 40
7.0
 40
7.0
 40
7.0
 40
7.0
 40
8.0
 40
8.0
 40
8.0
 40
8.0
 10
1.649295986509273
 20
0.8659472696217902
 30
0.0
 10
1.641065123178055
 20
0.8659804083906446
 30
0.0
 10
1.632834106159786
 20
0.8659516497025636
 30
0.0
 10
1.62417491703683
 20
0.8659516497025636
 30
0.0
  0
SPLINE
  5
AB
330
8A
100
AcDbEntity
  8
0
  6
Continuous
 62
     8
370
     0
100
AcDbSpline
210
0.0
220
0.0
230
1.0
 70
     8
 71
     3
 72
     8
 73
     4
 74
     0
 42
0.000000001
 43
0.00000001
 40
6.0
 40
6.0
 40
6.0
 40
6.0
 40
7.0
 40
7.0
 40
7.0
 40
7.0
 10
1.946341536816341
 20
0.8646261853965559
 30
0.0
 10
1.847328658686307
 20
0.8653779455725679
 30
0.0
 10
1.748311477319045
 20
0.8655485381914314
 30
0.0
 10
1.649295986509273
 20
0.8659472696217902
 30
0.0
  0
SPLINE
  5
AC
330
8A
100
AcDbEntity
  8
0
  6
Continuous
 62
     8
370
     0
100
AcDbSpline
210
0.0
220
0.0
230
1.0
 70
     8
 71
     3
 72
     8
 73
     4
 74
     0
 42
0.000000001
 43
0.00000001
 40
5.0
 40
5.0
 40
5.0
 40
5.0
 40
6.0
 40
6.0
 40
6.0
 40
6.0
 10
2.075548693742947
 20
0.8474146580679591
 30
0.0
 10
2.033357296913632
 20
0.8602345877182456
 30
0.0
 10
1.990056894374456
 20
0.8642942790140489
 30
0.0
 10
1.946341536816341
 20
0.8646261853965559
 30
0.0
  0
SPLINE
  5
AD
330
8A
100
AcDbEntity
  8
0
  6
Continuous
 62
     8
370
     0
100
AcDbSpline
210
0.0
220
0.0
230
1.0
 70
     8
 71
     3
 72
     8
 73
     4
 74
     0
 42
0.000000001
 43
0.00000001
 40
4.0
 40
4.0
 40
4.0
 40
4.0
 40
5.0
 40
5.0
 40
5.0
 40
5.0
 10
2.272852428270046
 20
0.571897195068549
 30
0.0
 10
2.277550026458512
 20
0.7064368889952508
 30
0.0
 10
2.204501498611656
 20
0.8082320021054833
 30
0.0
 10
2.075548693742947
 20
0.8474146580679591
 30
0.0
  0
SPLINE
  5
AE
330
8A
100
AcDbEntity
  8
0
  6
Continuous
 62
     8
370
     0
100
AcDbSpline
210
0.0
220
0.0
230
1.0
 70
     8
 71
     3
 72
     8
 73
     4
 74
     0
 42
0.000000001
 43
0.00000001
 40
3.0
 40
3.0
 40
3.0
 40
3.0
 40
4.0
 40
4.0
 40
4.0
 40
4.0
 10
2.046848406701573
 20
0.3076007017130627
 30
0.0
 10
2.186100087766244
 20
0.3388160388086005
 30
0.0
 10
2.268118252565098
 20
0.4363269334570884
 30
0.0
 10
2.272852428270046
 20
0.571897195068549
 30
0.0
  0
SPLINE
  5
AF
330
8A
100
AcDbEntity
  8
0
  6
Continuous
 62
     8
370
     0
100
AcDbSpline
210
0.0
220
0.0
230
1.0
 70
     8
 71
     3
 72
     8
 73
     4
 74
     0
 42
0.000000001
 43
0.00000001
 40
2.0
 40
2.0
 40
2.0
 40
2.0
 40
3.0
 40
3.0
 40
3.0
 40
3.0
 10
1.929668644155394
 20
0.2949715457116981
 30
0.0
 10
1.968879588139407
 20
0.2968527519744235
 30
0.0
 10
2.0087320218453
 20
0.2990563936555297
 30
0.0
 10
2.046848406701573
 20
0.3076007017130627
 30
0.0
  0
SPLINE
  5
B0
330
8A
100
AcDbEntity
  8
0
  6
Continuous
 62
     8
370
     0
100
AcDbSpline
210
0.0
220
0.0
230
1.0
 70
     8
 71
     3
 72
     8
 73
     4
 74
     0
 42
0.000000001
 43
0.00000001
 40
1.0
 40
1.0
 40
1.0
 40
1.0
 40
2.0
 40
2.0
 40
2.0
 40
2.0
 10
1.798772466614648
 20
0.2944888915498468
 30
0.0
 10
1.842412210147108
 20
0.294490505263809
 30
0.0
 10
1.886128950888609
 20
0.2928825545654005
 30
0.0
 10
1.929668644155394
 20
0.2949715457116981
 30
0.0
  0
SPLINE
  5
B1
330
8A
100
AcDbEntity
  8
0
  6
Continuous
 62
     8
370
     0
100
AcDbSpline
210
0.0
220
0.0
230
1.0
 70
     8
 71
     3
 72
     8
 73
     4
 74
     0
 42
0.000000001
 43
0.00000001
 40
0.0
 40
0.0
 40
0.0
 40
0.0
 40
1.0
 40
1.0
 40
1.0
 40
1.0
 10
1.771964220772605
 20
0.2944888147063214
 30
0.0
 10
1.782407870164083
 20
0.2944888147063214
 30
0.0
 10
1.790590168389365
 20
0.2944885841757452
 30
0.0
 10
1.798772466614648
 20
0.2944888915498468
 30
0.0
  0
SPLINE
  5
B2
330
8A
100
AcDbEntity
  8
0
  6
Continuous
 62
     8
370
     0
100
AcDbSpline
210
0.0
220
0.0
230
1.0
 70
     8
 71
     3
 72
     8
 73
     4
 74
     0
 42
0.000000001
 43
0.00000001
 40
37.0
 40
37.0
 40
37.0
 40
37.0
 40
38.0
 40
38.0
 40
38.0
 40
38.0
 10
1.798772466614648
 20
0.2944888915498468
 30
0.0
 10
1.790590168389365
 20
0.2944885841757452
 30
0.0
 10
1.782407870164083
 20
0.2944888147063214
 30
0.0
 10
1.771964220772605
 20
0.2944888147063214
 30
0.0
  0
SPLINE
  5
B3
330
8A
100
AcDbEntity
  8
0
  6
Continuous
 62
     8
370
     0
100
AcDbSpline
210
0.0
220
0.0
230
1.0
 70
     8
 71
     3
 72
     8
 73
     4
 74
     0
 42
0.000000001
 43
0.00000001
 40
36.0
 40
36.0
 40
36.0
 40
36.0
 40
37.0
 40
37.0
 40
37.0
 40
37.0
 10
1.929668644155394
 20
0.2949715457116981
 30
0.0
 10
1.886128950888609
 20
0.2928825545654005
 30
0.0
 10
1.842412210147108
 20
0.294490505263809
 30
0.0
 10
1.798772466614648
 20
0.2944888915498468
 30
0.0
  0
SPLINE
  5
B4
330
8A
100
AcDbEntity
  8
0
  6
Continuous
 62
     8
370
     0
100
AcDbSpline
210
0.0
220
0.0
230
1.0
 70
     8
 71
     3
 72
     8
 73
     4
 74
     0
 42
0.000000001
 43
0.00000001
 40
35.0
 40
35.0
 40
35.0
 40
35.0
 40
36.0
 40
36.0
 40
36.0
 40
36.0
 10
2.046848406701573
 20
0.3076007017130627
 30
0.0
 10
2.0087320218453
 20
0.2990563936555297
 30
0.0
 10
1.968879588139407
 20
0.2968527519744235
 30
0.0
 10
1.929668644155394
 20
0.2949715457116981
 30
0.0
  0
SPLINE
  5
B5
330
8A
100
AcDbEntity
  8
0
  6
Continuous
 62
     8
370
     0
100
AcDbSpline
210
0.0
220
0.0
230
1.0
 70
     8
 71
     3
 72
     8
 73
     4
 74
     0
 42
0.000000001
 43
0.00000001
 40
34.0
 40
34.0
 40
34.0
 40
34.0
 40
35.0
 40
35.0
 40
35.0
 40
35.0
 10
2.272852428270046
 20
0.571897195068549
 30
0.0
 10
2.268118252565098
 20
0.4363269334570884
 30
0.0
 10
2.186100087766244
 20
0.3388160388086005
 30
0.0
 10
2.046848406701573
 20
0.3076007017130627
 30
0.0
  0
SPLINE
  5
B6
330
8A
100
AcDbEntity
  8
0
  6
Continuous
 62
     8
370
     0
100
AcDbSpline
210
0.0
220
0.0
230
1.0
 70
     8
 71
     3
 72
     8
 73
     4
 74
     0
 42
0.000000001
 43
0.00000001
 40
33.0
 40
33.0
 40
33.0
 40
33.0
 40
34.0
 40
34.0
 40
34.0
 40
34.0
 10
2.075548693742947
 20
0.8474146580679591
 30
0.0
 10
2.204501498611656
 20
0.8082320021054833
 30
0.0
 10
2.277550026458512
 20
0.7064368889952508
 30
0.0
 10
2.272852428270046
 20
0.571897195068549
 30
0.0
  0
SPLINE
  5
B7
330
8A
100
AcDbEntity
  8
0
  6
Continuous
 62
     8
370
     0
100
AcDbSpline
210
0.0
220
0.0
230
1.0
 70
     8
 71
     3
 72
     8
 73
     4
 74
     0
 42
0.000000001
 43
0.00000001
 40
32.0
 40
32.0
 40
32.0
 40
32.0
 40
33.0
 40
33.0
 40
33.0
 40
33.0
 10
1.946341536816341
 20
0.8646261853965559
 30
0.0
 10
1.990056894374456
 20
0.8642942790140489
 30
0.0
 10
2.033357296913632
 20
0.8602345877182456
 30
0.0
 10
2.075548693742947
 20
0.8474146580679591
 30
0.0
  0
SPLINE
  5
B8
330
8A
100
AcDbEntity
  8
0
  6
Continuous
 62
     8
370
     0
100
AcDbSpline
210
0.0
220
0.0
230
1.0
 70
     8
 71
     3
 72
     8
 73
     4
 74
     0
 42
0.000000001
 43
0.00000001
 40
31.0
 40
31.0
 40
31.0
 40
31.0
 40
32.0
 40
32.0
 40
32.0
 40
32.0
 10
1.649295986509273
 20
0.8659472696217902
 30
0.0
 10
1.748311477319045
 20
0.8655485381914314
 30
0.0
 10
1.847328658686307
 20
0.8653779455725679
 30
0.0
 10
1.946341536816341
 20
0.8646261853965559
 30
0.0
  0
SPLINE
  5
B9
330
8A
100
AcDbEntity
  8
0
  6
Continuous
 62
     8
370
     0
100
AcDbSpline
210
0.0
220
0.0
230
1.0
 70
     8
 71
     3
 72
     8
 73
     4
 74
     0
 42
0.000000001
 43
0.00000001
 40
30.0
 40
30.0
 40
30.0
 40
30.0
 40
31.0
 40
31.0
 40
31.0
 40
31.0
 10
1.62417491703683
 20
0.8659516497025636
 30
0.0
 10
1.632834106159786
 20
0.8659516497025636
 30
0.0
 10
1.641065123178055
 20
0.8659804083906446
 30
0.0
 10
1.649295986509273
 20
0.8659472696217902
 30
0.0
  0
SPLINE
  5
BA
330
8A
100
AcDbEntity
  8
0
  6
Continuous
 62
     8
370
     0
100
AcDbSpline
210
0.0
220
0.0
230
1.0
 70
     8
 71
     3
 72
     8
 73
     4
 74
     0
 42
0.000000001
 43
0.00000001
 40
29.0
 40
29.0
 40
29.0
 40
29.0
 40
30.0
 40
30.0
 40
30.0
 40
30.0
 10
1.426048649449934
 20
0.2506702562981322
 30
0.0
 10
1.491873425165274
 20
0.4550891246383989
 30
0.0
 10
1.557698200880634
 20
0.6595079353460304
 30
0.0
 10
1.62417491703683
 20
0.8659516497025636
 30
0.0
  0
SPLINE
  5
BB
330
8A
100
AcDbEntity
  8
0
  6
Continuous
 62
     8
370
     0
100
AcDbSpline
210
0.0
220
0.0
230
1.0
 70
     8
 71
     3
 72
     8
 73
     4
 74
     0
 42
0.000000001
 43
0.00000001
 40
28.0
 40
28.0
 40
28.0
 40
28.0
 40
29.0
 40
29.0
 40
29.0
 40
29.0
 10
1.421478457821005
 20
0.2512611061389791
 30
0.0
 10
1.423001803801637
 20
0.2510641561920307
 30
0.0
 10
1.424525303469321
 20
0.2508672062450424
 30
0.0
 10
1.426048649449934
 20
0.2506702562981322
 30
0.0
  0
SPLINE
  5
BC
330
8A
100
AcDbEntity
  8
0
  6
Continuous
 62
     8
370
     0
100
AcDbSpline
210
0.0
220
0.0
230
1.0
 70
     8
 71
     3
 72
     8
 73
     4
 74
     0
 42
0.000000001
 43
0.00000001
 40
27.0
 40
27.0
 40
27.0
 40
27.0
 40
28.0
 40
28.0
 40
28.0
 40
28.0
 10
1.218661200588547
 20
0.8650559423989477
 30
0.0
 10
1.286105069312947
 20
0.6609474834658856
 30
0.0
 10
1.353791763566985
 20
0.4561043044078963
 30
0.0
 10
1.421478457821005
 20
0.2512611061389791
 30
0.0
  0
SPLINE
  5
BD
330
8A
100
AcDbEntity
  8
0
  6
Continuous
 62
     8
370
     0
100
AcDbSpline
210
0.0
220
0.0
230
1.0
 70
    24
 71
     3
 72
     8
 73
     4
 74
     0
 42
0.000000001
 43
0.00000001
 40
26.0
 40
26.0
 40
26.0
 40
26.0
 40
27.0
 40
27.0
 40
27.0
 40
27.0
 10
1.092528091917066
 20
0.8650559423989477
 30
0.0
 10
1.134162373211665
 20
0.8650559423989477
 30
0.0
 10
1.175041743745911
 20
0.8650559423989477
 30
0.0
 10
1.218661200588547
 20
0.8650559423989477
 30
0.0
  0
SPLINE
  5
BE
330
8A
100
AcDbEntity
  8
0
  6
Continuous
 62
     8
370
     0
100
AcDbSpline
210
0.0
220
0.0
230
1.0
 70
     8
 71
     3
 72
     8
 73
     4
 74
     0
 42
0.000000001
 43
0.00000001
 40
25.0
 40
25.0
 40
25.0
 40
25.0
 40
26.0
 40
26.0
 40
26.0
 40
26.0
 10
0.8895201859064792
 20
0.2506737911001599
 30
0.0
 10
0.9570933054349351
 20
0.4551767262535064
 30
0.0
 10
1.024666348119865
 20
0.6596796037742149
 30
0.0
 10
1.092528091917066
 20
0.8650559423989477
 30
0.0
  0
SPLINE
  5
BF
330
8A
100
AcDbEntity
  8
0
  6
Continuous
 62
     8
370
     0
100
AcDbSpline
210
0.0
220
0.0
230
1.0
 70
     8
 71
     3
 72
     8
 73
     4
 74
     0
 42
0.000000001
 43
0.00000001
 40
24.0
 40
24.0
 40
24.0
 40
24.0
 40
25.0
 40
25.0
 40
25.0
 40
25.0
 10
0.8851058329401726
 20
0.2508072682978802
 30
0.0
 10
0.8865772326999297
 20
0.2507627758986534
 30
0.0
 10
0.8880487093031957
 20
0.2507182834993876
 30
0.0
 10
0.8895201859064792
 20
0.2506737911001599
 30
0.0
  0
SPLINE
  5
C0
330
8A
100
AcDbEntity
  8
0
  6
Continuous
 62
     8
370
     0
100
AcDbSpline
210
0.0
220
0.0
230
1.0
 70
     8
 71
     3
 72
     8
 73
     4
 74
     0
 42
0.000000001
 43
0.00000001
 40
23.0
 40
23.0
 40
23.0
 40
23.0
 40
24.0
 40
24.0
 40
24.0
 40
24.0
 10
0.6877511511579565
 20
0.8636909324954444
 30
0.0
 10
0.7533473942387846
 20
0.6599822519857083
 30
0.0
 10
0.8192265751677246
 20
0.4553947313254969
 30
0.0
 10
0.8851058329401726
 20
0.2508072682978802
 30
0.0
  0
SPLINE
  5
C1
330
8A
100
AcDbEntity
  8
0
  6
Continuous
 62
     8
370
     0
100
AcDbSpline
210
0.0
220
0.0
230
1.0
 70
    24
 71
     3
 72
     8
 73
     4
 74
     0
 42
0.000000001
 43
0.00000001
 40
22.0
 40
22.0
 40
22.0
 40
22.0
 40
23.0
 40
23.0
 40
23.0
 40
23.0
 10
0.5404106135908139
 20
0.8636909324954444
 30
0.0
 10
0.5894939522235331
 20
0.8636909324954444
 30
0.0
 10
0.637656013870717
 20
0.8636909324954444
 30
0.0
 10
0.6877511511579565
 20
0.8636909324954444
 30
0.0
  0
SPLINE
  5
C2
330
8A
100
AcDbEntity
  8
0
  6
Continuous
 62
     8
370
     0
100
AcDbSpline
210
0.0
220
0.0
230
1.0
 70
    24
 71
     3
 72
    11
 73
     7
 74
     0
 42
0.000000001
 43
0.00000001
 40
20.0
 40
20.0
 40
20.0
 40
20.0
 40
21.0
 40
21.0
 40
21.0
 40
22.0
 40
22.0
 40
22.0
 40
22.0
 10
0.5404106135908139
 20
0.5943418430906087
 30
0.0
 10
0.5404106135908139
 20
0.6405311009968171
 30
0.0
 10
0.5404106135908139
 20
0.6846439124617284
 30
0.0
 10
0.5404106135908139
 20
0.7287567239266802
 30
0.0
 10
0.5404106135908139
 20
0.7730567262112387
 30
0.0
 10
0.5404106135908139
 20
0.817356728495797
 30
0.0
 10
0.5404106135908139
 20
0.8636909324954444
 30
0.0
  0
SPLINE
  5
C3
330
8A
100
AcDbEntity
  8
0
  6
Continuous
 62
     8
370
     0
100
AcDbSpline
210
0.0
220
0.0
230
1.0
 70
     8
 71
     3
 72
     8
 73
     4
 74
     0
 42
0.000000001
 43
0.00000001
 40
19.0
 40
19.0
 40
19.0
 40
19.0
 40
20.0
 40
20.0
 40
20.0
 40
20.0
 10
0.3734456236816819
 20
0.5938796293056314
 30
0.0
 10
0.4277765295900185
 20
0.595611528605035
 30
0.0
 10
0.4822031825268198
 20
0.5943418430906087
 30
0.0
 10
0.5404106135908139
 20
0.5943418430906087
 30
0.0
  0
SPLINE
  5
C4
330
8A
100
AcDbEntity
  8
0
  6
Continuous
 62
     8
370
     0
100
AcDbSpline
210
0.0
220
0.0
230
1.0
 70
     8
 71
     3
 72
    11
 73
     7
 74
     0
 42
0.000000001
 43
0.00000001
 40
17.0
 40
17.0
 40
17.0
 40
17.0
 40
18.0
 40
18.0
 40
18.0
 40
19.0
 40
19.0
 40
19.0
 40
19.0
 10
0.0397213155501118
 20
0.285635442003188
 30
0.0
 10
0.0288964838676611
 20
0.451223703371688
 30
0.0
 10
0.130182662331542
 20
0.5517777167577067
 30
0.0
 10
0.2711936758329829
 20
0.5830685141918284
 30
0.0
 10
0.3044681119446659
 20
0.5904522161144544
 30
0.0
 10
0.3392457226124493
 20
0.5927894118368822
 30
0.0
 10
0.3734456236816819
 20
0.5938796293056314
 30
0.0
  0
SPLINE
  5
C5
330
8A
100
AcDbEntity
  8
0
  6
Continuous
 62
     8
370
     0
100
AcDbSpline
210
0.0
220
0.0
230
1.0
 70
     8
 71
     3
 72
     8
 73
     4
 74
     0
 42
0.000000001
 43
0.00000001
 40
16.0
 40
16.0
 40
16.0
 40
16.0
 40
17.0
 40
17.0
 40
17.0
 40
17.0
 10
0.1884951769118723
 20
0.0601667124091723
 30
0.0
 10
0.0952553604828298
 20
0.1062695981966055
 30
0.0
 10
0.0464532307189517
 20
0.1826565160143632
 30
0.0
 10
0.0397213155501118
 20
0.285635442003188
 30
0.0
  0
SPLINE
  5
C6
330
8A
100
AcDbEntity
  8
0
  6
Continuous
 62
     8
370
     0
100
AcDbSpline
210
0.0
220
0.0
230
1.0
 70
     8
 71
     3
 72
     8
 73
     4
 74
     0
 42
0.000000001
 43
0.00000001
 40
15.0
 40
15.0
 40
15.0
 40
15.0
 40
16.0
 40
16.0
 40
16.0
 40
16.0
 10
0.3493110713449961
 20
0.0249956629086091
 30
0.0
 10
0.2933691794191386
 20
0.0252873609182086
 30
0.0
 10
0.2390193315826015
 20
0.0351846528680666
 30
0.0
 10
0.1884951769118723
 20
0.0601667124091723
 30
0.0
  0
SPLINE
  5
C7
330
8A
100
AcDbEntity
  8
0
  6
Continuous
 62
     8
370
     0
100
AcDbSpline
210
0.0
220
0.0
230
1.0
 70
     8
 71
     3
 72
     8
 73
     4
 74
     0
 42
0.000000001
 43
0.00000001
 40
14.0
 40
14.0
 40
14.0
 40
14.0
 40
15.0
 40
15.0
 40
15.0
 40
15.0
 10
0.6665367295018015
 20
0.0248740964567577
 30
0.0
 10
0.5607945873044473
 20
0.0247788873329534
 30
0.0
 10
0.4550504471755414
 20
0.0244442337945254
 30
0.0
 10
0.3493110713449961
 20
0.0249956629086091
 30
0.0
  0
SPLINE
  5
C8
330
8A
100
AcDbEntity
  8
0
  6
Continuous
 62
     8
370
     0
100
AcDbSpline
210
0.0
220
0.0
230
1.0
 70
     8
 71
     3
 72
     8
 73
     4
 74
     0
 42
0.000000001
 43
0.00000001
 40
13.0
 40
13.0
 40
13.0
 40
13.0
 40
14.0
 40
14.0
 40
14.0
 40
14.0
 10
0.690171798945296
 20
0.0267215684133154
 30
0.0
 10
0.6808401521610634
 20
0.0259625081027092
 30
0.0
 10
0.673688940314331
 20
0.0248805513126075
 30
0.0
 10
0.6665367295018015
 20
0.0248740964567577
 30
0.0
  0
SPLINE
  5
C9
330
8A
100
AcDbEntity
  8
0
  6
Continuous
 62
     8
370
     0
100
AcDbSpline
210
0.0
220
0.0
230
1.0
 70
    24
 71
     3
 72
     8
 73
     4
 74
     0
 42
0.000000001
 43
0.00000001
 40
12.0
 40
12.0
 40
12.0
 40
12.0
 40
13.0
 40
13.0
 40
13.0
 40
13.0
 10
0.690171798945296
 20
0.3810893508323517
 30
0.0
 10
0.690171798945296
 20
0.2637362677222606
 30
0.0
 10
0.690171798945296
 20
0.1463832230338764
 30
0.0
 10
0.690171798945296
 20
0.0267215684133154
 30
0.0
  0
SPLINE
  5
CA
330
8A
100
AcDbEntity
  8
0
  6
Continuous
 62
     8
370
     0
100
AcDbSpline
210
0.0
220
0.0
230
1.0
 70
     8
 71
     3
 72
     8
 73
     4
 74
     0
 42
0.000000001
 43
0.00000001
 40
11.0
 40
11.0
 40
11.0
 40
11.0
 40
12.0
 40
12.0
 40
12.0
 40
12.0
 10
0.6940132066113596
 20
0.3815594795001297
 30
0.0
 10
0.6927327630038549
 20
0.3814027571369421
 30
0.0
 10
0.6914522425528219
 20
0.3812460731955374
 30
0.0
 10
0.690171798945296
 20
0.3810893508323517
 30
0.0
  0
SPLINE
  5
CB
330
8A
100
AcDbEntity
  8
0
  6
Continuous
 62
     8
370
     0
100
AcDbSpline
210
0.0
220
0.0
230
1.0
 70
     8
 71
     3
 72
     8
 73
     4
 74
     0
 42
0.000000001
 43
0.00000001
 40
10.0
 40
10.0
 40
10.0
 40
10.0
 40
11.0
 40
11.0
 40
11.0
 40
11.0
 10
0.8194283662565629
 20
0.0208614814236237
 30
0.0
 10
0.7779199546510239
 20
0.1402411203183612
 30
0.0
 10
0.7359666190529646
 20
0.260900280698354
 30
0.0
 10
0.6940132066113596
 20
0.3815594795001297
 30
0.0
  0
SPLINE
  5
CC
330
8A
100
AcDbEntity
  8
0
  6
Continuous
 62
     8
370
     0
100
AcDbSpline
210
0.0
220
0.0
230
1.0
 70
    24
 71
     3
 72
     8
 73
     4
 74
     0
 42
0.000000001
 43
0.00000001
 40
9.0
 40
9.0
 40
9.0
 40
9.0
 40
10.0
 40
10.0
 40
10.0
 40
10.0
 10
0.9481694672220798
 20
0.0208614814236237
 30
0.0
 10
0.9058301466128856
 20
0.0208614814236237
 30
0.0
 10
0.864205624445552
 20
0.0208614814236237
 30
0.0
 10
0.8194283662565629
 20
0.0208614814236237
 30
0.0
  0
SPLINE
  5
CD
330
8A
100
AcDbEntity
  8
0
  6
Continuous
 62
     8
370
     0
100
AcDbSpline
210
0.0
220
0.0
230
1.0
 70
     8
 71
     3
 72
     8
 73
     4
 74
     0
 42
0.000000001
 43
0.00000001
 40
8.0
 40
8.0
 40
8.0
 40
8.0
 40
9.0
 40
9.0
 40
9.0
 40
9.0
 10
1.150680349332222
 20
0.6124822549134179
 30
0.0
 10
1.083316244183653
 20
0.4156826523125666
 30
0.0
 10
1.015951985348072
 20
0.2188830881334553
 30
0.0
 10
0.9481694672220798
 20
0.0208614814236237
 30
0.0
  0
SPLINE
  5
CE
330
8A
100
AcDbEntity
  8
0
  6
Continuous
 62
     8
370
     0
100
AcDbSpline
210
0.0
220
0.0
230
1.0
 70
     8
 71
     3
 72
     8
 73
     4
 74
     0
 42
0.000000001
 43
0.00000001
 40
7.0
 40
7.0
 40
7.0
 40
7.0
 40
8.0
 40
8.0
 40
8.0
 40
8.0
 10
1.155931220879272
 20
0.6119791219529866
 30
0.0
 10
1.154180879134584
 20
0.6121468329397722
 30
0.0
 10
1.15243069107691
 20
0.6123145439266341
 30
0.0
 10
1.150680349332222
 20
0.6124822549134179
 30
0.0
  0
SPLINE
  5
CF
330
8A
100
AcDbEntity
  8
0
  6
Continuous
 62
     8
370
     0
100
AcDbSpline
210
0.0
220
0.0
230
1.0
 70
     8
 71
     3
 72
     8
 73
     4
 74
     0
 42
0.000000001
 43
0.00000001
 40
6.0
 40
6.0
 40
6.0
 40
6.0
 40
7.0
 40
7.0
 40
7.0
 40
7.0
 10
1.358252530020567
 20
0.02098166469205
 30
0.0
 10
1.291194723150807
 20
0.2168631793135314
 30
0.0
 10
1.223562895171523
 20
0.4144211890550427
 30
0.0
 10
1.155931220879272
 20
0.6119791219529866
 30
0.0
  0
SPLINE
  5
D0
330
8A
100
AcDbEntity
  8
0
  6
Continuous
 62
     8
370
     0
100
AcDbSpline
210
0.0
220
0.0
230
1.0
 70
    24
 71
     3
 72
     8
 73
     4
 74
     0
 42
0.000000001
 43
0.00000001
 40
5.0
 40
5.0
 40
5.0
 40
5.0
 40
6.0
 40
6.0
 40
6.0
 40
6.0
 10
1.487154618164736
 20
0.02098166469205
 30
0.0
 10
1.445210042728163
 20
0.02098166469205
 30
0.0
 10
1.403594203878849
 20
0.02098166469205
 30
0.0
 10
1.358252530020567
 20
0.02098166469205
 30
0.0
  0
SPLINE
  5
D1
330
8A
100
AcDbEntity
  8
0
  6
Continuous
 62
     8
370
     0
100
AcDbSpline
210
0.0
220
0.0
230
1.0
 70
     8
 71
     3
 72
     8
 73
     4
 74
     0
 42
0.000000001
 43
0.00000001
 40
4.0
 40
4.0
 40
4.0
 40
4.0
 40
5.0
 40
5.0
 40
5.0
 40
5.0
 10
1.617341837371248
 20
0.3961420746749176
 30
0.0
 10
1.574112284559385
 20
0.2715673142083528
 30
0.0
 10
1.530882578060469
 20
0.1469925921635305
 30
0.0
 10
1.487154618164736
 20
0.02098166469205
 30
0.0
  0
SPLINE
  5
D2
330
8A
100
AcDbEntity
  8
0
  6
Continuous
 62
     8
370
     0
100
AcDbSpline
210
0.0
220
0.0
230
1.0
 70
     8
 71
     3
 72
     8
 73
     4
 74
     0
 42
0.000000001
 43
0.00000001
 40
3.0
 40
3.0
 40
3.0
 40
3.0
 40
4.0
 40
4.0
 40
4.0
 40
4.0
 10
1.624299249855472
 20
0.3947778716284157
 30
0.0
 10
1.621980112360718
 20
0.3952325931699642
 30
0.0
 10
1.619660974865984
 20
0.3956873147115886
 30
0.0
 10
1.617341837371248
 20
0.3961420746749176
 30
0.0
  0
SPLINE
  5
D3
330
8A
100
AcDbEntity
  8
0
  6
Continuous
 62
     8
370
     0
100
AcDbSpline
210
0.0
220
0.0
230
1.0
 70
    24
 71
     3
 72
     8
 73
     4
 74
     0
 42
0.000000001
 43
0.00000001
 40
2.0
 40
2.0
 40
2.0
 40
2.0
 40
3.0
 40
3.0
 40
3.0
 40
3.0
 10
1.624299249855472
 20
0.0264862735488503
 30
0.0
 10
1.624299249855472
 20
0.1490446215756984
 30
0.0
 10
1.624299249855472
 20
0.2719112658129299
 30
0.0
 10
1.624299249855472
 20
0.3947778716284157
 30
0.0
  0
SPLINE
  5
D4
330
8A
100
AcDbEntity
  8
0
  6
Continuous
 62
     8
370
     0
100
AcDbSpline
210
0.0
220
0.0
230
1.0
 70
    24
 71
     3
 72
     8
 73
     4
 74
     0
 42
0.000000001
 43
0.00000001
 40
1.0
 40
1.0
 40
1.0
 40
1.0
 40
2.0
 40
2.0
 40
2.0
 40
2.0
 10
1.771964220772605
 20
0.0264862735488503
 30
0.0
 10
1.722299791426324
 20
0.0264862735488503
 30
0.0
 10
1.674864746341027
 20
0.0264862735488503
 30
0.0
 10
1.624299249855472
 20
0.0264862735488503
 30
0.0
  0
SPLINE
  5
D5
330
8A
100
AcDbEntity
  8
0
  6
Continuous
 62
     8
370
     0
100
AcDbSpline
210
0.0
220
0.0
230
1.0
 70
    24
 71
     3
 72
     8
 73
     4
 74
     0
 42
0.000000001
 43
0.00000001
 40
0.0
 40
0.0
 40
0.0
 40
0.0
 40
1.0
 40
1.0
 40
1.0
 40
1.0
 10
1.771964220772605
 20
0.2944888147063214
 30
0.0
 10
1.771964220772605
 20
0.2037081062473845
 30
0.0
 10
1.771964220772605
 20
0.1159242183039175
 30
0.0
 10
1.771964220772605
 20
0.0264862735488503
 30
0.0
  0
SPLINE
  5
D6
330
8A
100
AcDbEntity
  8
0
  6
Continuous
 62
     8
370
     0
100
AcDbSpline
210
0.0
220
0.0
230
1.0
 70
    24
 71
     3
 72
     8
 73
     4
 74
     0
 42
0.000000001
 43
0.00000001
 40
7.0
 40
7.0
 40
7.0
 40
7.0
 40
8.0
 40
8.0
 40
8.0
 40
8.0
 10
1.772696693224568
 20
0.72493731271878
 30
0.0
 10
1.772696693224568
 20
0.6274446107741074
 30
0.0
 10
1.772696693224568
 20
0.5294707339053845
 30
0.0
 10
1.772696693224568
 20
0.4292406159646945
 30
0.0
  0
SPLINE
  5
D7
330
8A
100
AcDbEntity
  8
0
  6
Continuous
 62
     8
370
     0
100
AcDbSpline
210
0.0
220
0.0
230
1.0
 70
     8
 71
     3
 72
     8
 73
     4
 74
     0
 42
0.000000001
 43
0.00000001
 40
6.0
 40
6.0
 40
6.0
 40
6.0
 40
7.0
 40
7.0
 40
7.0
 40
7.0
 10
1.7771757484364
 20
0.7284172868789588
 30
0.0
 10
1.77589999228373
 20
0.7284342116647347
 30
0.0
 10
1.774597955646521
 20
0.7264700336090679
 30
0.0
 10
1.772696693224568
 20
0.72493731271878
 30
0.0
  0
SPLINE
  5
D8
330
8A
100
AcDbEntity
  8
0
  6
Continuous
 62
     8
370
     0
100
AcDbSpline
210
0.0
220
0.0
230
1.0
 70
     8
 71
     3
 72
     8
 73
     4
 74
     0
 42
0.000000001
 43
0.00000001
 40
5.0
 40
5.0
 40
5.0
 40
5.0
 40
6.0
 40
6.0
 40
6.0
 40
6.0
 10
1.988237547146977
 20
0.724942864663213
 30
0.0
 10
1.917900058757163
 20
0.726758196816677
 30
0.0
 10
1.847533984577173
 20
0.7274827351749661
 30
0.0
 10
1.7771757484364
 20
0.7284172868789588
 30
0.0
  0
SPLINE
  5
D9
330
8A
100
AcDbEntity
  8
0
  6
Continuous
 62
     8
370
     0
100
AcDbSpline
210
0.0
220
0.0
230
1.0
 70
     8
 71
     3
 72
     8
 73
     4
 74
     0
 42
0.000000001
 43
0.00000001
 40
4.0
 40
4.0
 40
4.0
 40
4.0
 40
5.0
 40
5.0
 40
5.0
 40
5.0
 10
2.024827819655828
 20
0.7166598437914923
 30
0.0
 10
2.012985618163513
 20
0.7205966719010098
 30
0.0
 10
2.000513760851701
 20
0.7246260388219401
 30
0.0
 10
1.988237547146977
 20
0.724942864663213
 30
0.0
  0
SPLINE
  5
DA
330
8A
100
AcDbEntity
  8
0
  6
Continuous
 62
     8
370
     0
100
AcDbSpline
210
0.0
220
0.0
230
1.0
 70
     8
 71
     3
 72
     8
 73
     4
 74
     0
 42
0.000000001
 43
0.00000001
 40
3.0
 40
3.0
 40
3.0
 40
3.0
 40
4.0
 40
4.0
 40
4.0
 40
4.0
 10
2.122229442816038
 20
0.5877238100214116
 30
0.0
 10
2.119482747964745
 20
0.6536512102604237
 30
0.0
 10
2.086392697884135
 20
0.6961935322439563
 30
0.0
 10
2.024827819655828
 20
0.7166598437914923
 30
0.0
  0
SPLINE
  5
DB
330
8A
100
AcDbEntity
  8
0
  6
Continuous
 62
     8
370
     0
100
AcDbSpline
210
0.0
220
0.0
230
1.0
 70
     8
 71
     3
 72
     8
 73
     4
 74
     0
 42
0.000000001
 43
0.00000001
 40
2.0
 40
2.0
 40
2.0
 40
2.0
 40
3.0
 40
3.0
 40
3.0
 40
3.0
 10
2.042908793014375
 20
0.4507722861015534
 30
0.0
 10
2.099434580442348
 20
0.4778377656335913
 30
0.0
 10
2.124799551253694
 20
0.5260290278191184
 30
0.0
 10
2.122229442816038
 20
0.5877238100214116
 30
0.0
  0
SPLINE
  5
DC
330
8A
100
AcDbEntity
  8
0
  6
Continuous
 62
     8
370
     0
100
AcDbSpline
210
0.0
220
0.0
230
1.0
 70
     8
 71
     3
 72
     8
 73
     4
 74
     0
 42
0.000000001
 43
0.00000001
 40
1.0
 40
1.0
 40
1.0
 40
1.0
 40
2.0
 40
2.0
 40
2.0
 40
2.0
 10
1.968538863962737
 20
0.4301953198823512
 30
0.0
 10
1.99368083487319
 20
0.431315045263547
 30
0.0
 10
2.019958245665075
 20
0.4397831245472366
 30
0.0
 10
2.042908793014375
 20
0.4507722861015534
 30
0.0
  0
SPLINE
  5
DD
330
8A
100
AcDbEntity
  8
0
  6
Continuous
 62
     8
370
     0
100
AcDbSpline
210
0.0
220
0.0
230
1.0
 70
     8
 71
     3
 72
     8
 73
     4
 74
     0
 42
0.000000001
 43
0.00000001
 40
0.0
 40
0.0
 40
0.0
 40
0.0
 40
1.0
 40
1.0
 40
1.0
 40
1.0
 10
1.772696693224568
 20
0.4292406159646945
 30
0.0
 10
1.839738209267667
 20
0.4292406159646945
 30
0.0
 10
1.904244811206169
 20
0.427331938142857
 30
0.0
 10
1.968538863962737
 20
0.4301953198823512
 30
0.0
  0
SPLINE
  5
DE
330
8A
100
AcDbEntity
  8
0
  6
Continuous
 62
     8
370
     0
100
AcDbSpline
210
0.0
220
0.0
230
1.0
 70
    24
 71
     3
 72
     8
 73
     4
 74
     0
 42
0.000000001
 43
0.00000001
 40
7.0
 40
7.0
 40
7.0
 40
7.0
 40
8.0
 40
8.0
 40
8.0
 40
8.0
 10
0.5390554012363384
 20
0.1631507100704226
 30
0.0
 10
0.5390554012363384
 20
0.2621132556935445
 30
0.0
 10
0.5390554012363384
 20
0.3598850725211094
 30
0.0
 10
0.5390554012363384
 20
0.4629506780027703
 30
0.0
  0
SPLINE
  5
DF
330
8A
100
AcDbEntity
  8
0
  6
Continuous
 62
     8
370
     0
100
AcDbSpline
210
0.0
220
0.0
230
1.0
 70
     8
 71
     3
 72
     8
 73
     4
 74
     0
 42
0.000000001
 43
0.00000001
 40
6.0
 40
6.0
 40
6.0
 40
6.0
 40
7.0
 40
7.0
 40
7.0
 40
7.0
 10
0.5248162966050102
 20
0.1604724827972793
 30
0.0
 10
0.5295344120138378
 20
0.160476709191001
 30
0.0
 10
0.5342511442393161
 20
0.1622059189671589
 30
0.0
 10
0.5390554012363384
 20
0.1631507100704226
 30
0.0
  0
SPLINE
  5
E0
330
8A
100
AcDbEntity
  8
0
  6
Continuous
 62
     8
370
     0
100
AcDbSpline
210
0.0
220
0.0
230
1.0
 70
     8
 71
     3
 72
     8
 73
     4
 74
     0
 42
0.000000001
 43
0.00000001
 40
5.0
 40
5.0
 40
5.0
 40
5.0
 40
6.0
 40
6.0
 40
6.0
 40
6.0
 10
0.3514706816879914
 20
0.1613415830313804
 30
0.0
 10
0.4092002997320391
 20
0.1594312530738381
 30
0.0
 10
0.4670281237972034
 20
0.1604200755152499
 30
0.0
 10
0.5248162966050102
 20
0.1604724827972793
 30
0.0
  0
SPLINE
  5
E1
330
8A
100
AcDbEntity
  8
0
  6
Continuous
 62
     8
370
     0
100
AcDbSpline
210
0.0
220
0.0
230
1.0
 70
     8
 71
     3
 72
     8
 73
     4
 74
     0
 42
0.000000001
 43
0.00000001
 40
4.0
 40
4.0
 40
4.0
 40
4.0
 40
5.0
 40
5.0
 40
5.0
 40
5.0
 10
0.2828443064248989
 20
0.1742452240934728
 30
0.0
 10
0.3047319925993092
 20
0.1668458845140787
 30
0.0
 10
0.3284266157723944
 20
0.1621040244569259
 30
0.0
 10
0.3514706816879914
 20
0.1613415830313804
 30
0.0
  0
SPLINE
  5
E2
330
8A
100
AcDbEntity
  8
0
  6
Continuous
 62
     8
370
     0
100
AcDbSpline
210
0.0
220
0.0
230
1.0
 70
     8
 71
     3
 72
     8
 73
     4
 74
     0
 42
0.000000001
 43
0.00000001
 40
3.0
 40
3.0
 40
3.0
 40
3.0
 40
4.0
 40
4.0
 40
4.0
 40
4.0
 10
0.1909499432229893
 20
0.2882266055659034
 30
0.0
 10
0.1968572121351931
 20
0.2306200908441237
 30
0.0
 10
0.2288319553371043
 20
0.192504858640698
 30
0.0
 10
0.2828443064248989
 20
0.1742452240934728
 30
0.0
  0
SPLINE
  5
E3
330
8A
100
AcDbEntity
  8
0
  6
Continuous
 62
     8
370
     0
100
AcDbSpline
210
0.0
220
0.0
230
1.0
 70
     8
 71
     3
 72
     8
 73
     4
 74
     0
 42
0.000000001
 43
0.00000001
 40
2.0
 40
2.0
 40
2.0
 40
2.0
 40
3.0
 40
3.0
 40
3.0
 40
3.0
 10
0.2617660514897281
 20
0.4344948302049796
 30
0.0
 10
0.2049584404447451
 20
0.402667280769489
 30
0.0
 10
0.1844805255254232
 20
0.3513151371489273
 30
0.0
 10
0.1909499432229893
 20
0.2882266055659034
 30
0.0
  0
SPLINE
  5
E4
330
8A
100
AcDbEntity
  8
0
  6
Continuous
 62
     8
370
     0
100
AcDbSpline
210
0.0
220
0.0
230
1.0
 70
     8
 71
     3
 72
     8
 73
     4
 74
     0
 42
0.000000001
 43
0.00000001
 40
1.0
 40
1.0
 40
1.0
 40
1.0
 40
2.0
 40
2.0
 40
2.0
 40
2.0
 10
0.3252256988624132
 20
0.4563019075247557
 30
0.0
 10
0.3036116140481834
 20
0.4549463877962351
 30
0.0
 10
0.2810838597570612
 20
0.4453180097517018
 30
0.0
 10
0.2617660514897281
 20
0.4344948302049796
 30
0.0
  0
SPLINE
  5
E5
330
8A
100
AcDbEntity
  8
0
  6
Continuous
 62
     8
370
     0
100
AcDbSpline
210
0.0
220
0.0
230
1.0
 70
     8
 71
     3
 72
     8
 73
     4
 74
     0
 42
0.000000001
 43
0.00000001
 40
0.0
 40
0.0
 40
0.0
 40
0.0
 40
1.0
 40
1.0
 40
1.0
 40
1.0
 10
0.5390554012363384
 20
0.4629506780027703
 30
0.0
 10
0.4654456851481354
 20
0.4609859428316056
 30
0.0
 10
0.3952073249017251
 20
0.4606908637069915
 30
0.0
 10
0.3252256988624132
 20
0.4563019075247557
 30
0.0
  0
SPLINE
  5
E6
330
8A
100
AcDbEntity
  8
0
  6
Continuous
 62
     8
370
     0
100
AcDbSpline
210
0.0
220
0.0
230
1.0
 70
     8
 71
     3
 72
     8
 73
     4
 74
     0
 42
0.000000001
 43
0.00000001
 40
7.0
 40
7.0
 40
7.0
 40
7.0
 40
8.0
 40
8.0
 40
8.0
 40
8.0
 10
1.968538863962737
 20
0.4301953198823512
 30
0.0
 10
1.904244811206169
 20
0.427331938142857
 30
0.0
 10
1.839738209267667
 20
0.4292406159646945
 30
0.0
 10
1.772696693224568
 20
0.4292406159646945
 30
0.0
  0
SPLINE
  5
E7
330
8A
100
AcDbEntity
  8
0
  6
Continuous
 62
     8
370
     0
100
AcDbSpline
210
0.0
220
0.0
230
1.0
 70
     8
 71
     3
 72
     8
 73
     4
 74
     0
 42
0.000000001
 43
0.00000001
 40
6.0
 40
6.0
 40
6.0
 40
6.0
 40
7.0
 40
7.0
 40
7.0
 40
7.0
 10
2.042908793014375
 20
0.4507722861015534
 30
0.0
 10
2.019958245665075
 20
0.4397831245472366
 30
0.0
 10
1.99368083487319
 20
0.431315045263547
 30
0.0
 10
1.968538863962737
 20
0.4301953198823512
 30
0.0
  0
SPLINE
  5
E8
330
8A
100
AcDbEntity
  8
0
  6
Continuous
 62
     8
370
     0
100
AcDbSpline
210
0.0
220
0.0
230
1.0
 70
     8
 71
     3
 72
     8
 73
     4
 74
     0
 42
0.000000001
 43
0.00000001
 40
5.0
 40
5.0
 40
5.0
 40
5.0
 40
6.0
 40
6.0
 40
6.0
 40
6.0
 10
2.122229442816038
 20
0.5877238100214116
 30
0.0
 10
2.124799551253694
 20
0.5260290278191184
 30
0.0
 10
2.099434580442348
 20
0.4778377656335913
 30
0.0
 10
2.042908793014375
 20
0.4507722861015534
 30
0.0
  0
SPLINE
  5
E9
330
8A
100
AcDbEntity
  8
0
  6
Continuous
 62
     8
370
     0
100
AcDbSpline
210
0.0
220
0.0
230
1.0
 70
     8
 71
     3
 72
     8
 73
     4
 74
     0
 42
0.000000001
 43
0.00000001
 40
4.0
 40
4.0
 40
4.0
 40
4.0
 40
5.0
 40
5.0
 40
5.0
 40
5.0
 10
2.024827819655828
 20
0.7166598437914923
 30
0.0
 10
2.086392697884135
 20
0.6961935322439563
 30
0.0
 10
2.119482747964745
 20
0.6536512102604237
 30
0.0
 10
2.122229442816038
 20
0.5877238100214116
 30
0.0
  0
SPLINE
  5
EA
330
8A
100
AcDbEntity
  8
0
  6
Continuous
 62
     8
370
     0
100
AcDbSpline
210
0.0
220
0.0
230
1.0
 70
     8
 71
     3
 72
     8
 73
     4
 74
     0
 42
0.000000001
 43
0.00000001
 40
3.0
 40
3.0
 40
3.0
 40
3.0
 40
4.0
 40
4.0
 40
4.0
 40
4.0
 10
1.988237547146977
 20
0.724942864663213
 30
0.0
 10
2.000513760851701
 20
0.7246260388219401
 30
0.0
 10
2.012985618163513
 20
0.7205966719010098
 30
0.0
 10
2.024827819655828
 20
0.7166598437914923
 30
0.0
  0
SPLINE
  5
EB
330
8A
100
AcDbEntity
  8
0
  6
Continuous
 62
     8
370
     0
100
AcDbSpline
210
0.0
220
0.0
230
1.0
 70
     8
 71
     3
 72
     8
 73
     4
 74
     0
 42
0.000000001
 43
0.00000001
 40
2.0
 40
2.0
 40
2.0
 40
2.0
 40
3.0
 40
3.0
 40
3.0
 40
3.0
 10
1.7771757484364
 20
0.7284172868789588
 30
0.0
 10
1.847533984577173
 20
0.7274827351749661
 30
0.0
 10
1.917900058757163
 20
0.726758196816677
 30
0.0
 10
1.988237547146977
 20
0.724942864663213
 30
0.0
  0
SPLINE
  5
EC
330
8A
100
AcDbEntity
  8
0
  6
Continuous
 62
     8
370
     0
100
AcDbSpline
210
0.0
220
0.0
230
1.0
 70
     8
 71
     3
 72
     8
 73
     4
 74
     0
 42
0.000000001
 43
0.00000001
 40
1.0
 40
1.0
 40
1.0
 40
1.0
 40
2.0
 40
2.0
 40
2.0
 40
2.0
 10
1.772696693224568
 20
0.72493731271878
 30
0.0
 10
1.774597955646521
 20
0.7264700336090679
 30
0.0
 10
1.77589999228373
 20
0.7284342116647347
 30
0.0
 10
1.7771757484364
 20
0.7284172868789588
 30
0.0
  0
SPLINE
  5
ED
330
8A
100
AcDbEntity
  8
0
  6
Continuous
 62
     8
370
     0
100
AcDbSpline
210
0.0
220
0.0
230
1.0
 70
    24
 71
     3
 72
     8
 73
     4
 74
     0
 42
0.000000001
 43
0.00000001
 40
0.0
 40
0.0
 40
0.0
 40
0.0
 40
1.0
 40
1.0
 40
1.0
 40
1.0
 10
1.772696693224568
 20
0.4292406159646945
 30
0.0
 10
1.772696693224568
 20
0.5294707339053845
 30
0.0
 10
1.772696693224568
 20
0.6274446107741074
 30
0.0
 10
1.772696693224568
 20
0.72493731271878
 30
0.0
  0
SPLINE
  5
EE
330
8A
100
AcDbEntity
  8
0
  6
Continuous
 62
     8
370
     0
100
AcDbSpline
210
0.0
220
0.0
230
1.0
 70
     8
 71
     3
 72
     8
 73
     4
 74
     0
 42
0.000000001
 43
0.00000001
 40
7.0
 40
7.0
 40
7.0
 40
7.0
 40
8.0
 40
8.0
 40
8.0
 40
8.0
 10
0.3252256988624132
 20
0.4563019075247557
 30
0.0
 10
0.3952073249017251
 20
0.4606908637069915
 30
0.0
 10
0.4654456851481354
 20
0.4609859428316056
 30
0.0
 10
0.5390554012363384
 20
0.4629506780027703
 30
0.0
  0
SPLINE
  5
EF
330
8A
100
AcDbEntity
  8
0
  6
Continuous
 62
     8
370
     0
100
AcDbSpline
210
0.0
220
0.0
230
1.0
 70
     8
 71
     3
 72
     8
 73
     4
 74
     0
 42
0.000000001
 43
0.00000001
 40
6.0
 40
6.0
 40
6.0
 40
6.0
 40
7.0
 40
7.0
 40
7.0
 40
7.0
 10
0.2617660514897281
 20
0.4344948302049796
 30
0.0
 10
0.2810838597570612
 20
0.4453180097517018
 30
0.0
 10
0.3036116140481834
 20
0.4549463877962351
 30
0.0
 10
0.3252256988624132
 20
0.4563019075247557
 30
0.0
  0
SPLINE
  5
F0
330
8A
100
AcDbEntity
  8
0
  6
Continuous
 62
     8
370
     0
100
AcDbSpline
210
0.0
220
0.0
230
1.0
 70
     8
 71
     3
 72
     8
 73
     4
 74
     0
 42
0.000000001
 43
0.00000001
 40
5.0
 40
5.0
 40
5.0
 40
5.0
 40
6.0
 40
6.0
 40
6.0
 40
6.0
 10
0.1909499432229893
 20
0.2882266055659034
 30
0.0
 10
0.1844805255254232
 20
0.3513151371489273
 30
0.0
 10
0.2049584404447451
 20
0.402667280769489
 30
0.0
 10
0.2617660514897281
 20
0.4344948302049796
 30
0.0
  0
SPLINE
  5
F1
330
8A
100
AcDbEntity
  8
0
  6
Continuous
 62
     8
370
     0
100
AcDbSpline
210
0.0
220
0.0
230
1.0
 70
     8
 71
     3
 72
     8
 73
     4
 74
     0
 42
0.000000001
 43
0.00000001
 40
4.0
 40
4.0
 40
4.0
 40
4.0
 40
5.0
 40
5.0
 40
5.0
 40
5.0
 10
0.2828443064248989
 20
0.1742452240934728
 30
0.0
 10
0.2288319553371043
 20
0.192504858640698
 30
0.0
 10
0.1968572121351931
 20
0.2306200908441237
 30
0.0
 10
0.1909499432229893
 20
0.2882266055659034
 30
0.0
  0
SPLINE
  5
F2
330
8A
100
AcDbEntity
  8
0
  6
Continuous
 62
     8
370
     0
100
AcDbSpline
210
0.0
220
0.0
230
1.0
 70
     8
 71
     3
 72
     8
 73
     4
 74
     0
 42
0.000000001
 43
0.00000001
 40
3.0
 40
3.0
 40
3.0
 40
3.0
 40
4.0
 40
4.0
 40
4.0
 40
4.0
 10
0.3514706816879914
 20
0.1613415830313804
 30
0.0
 10
0.3284266157723944
 20
0.1621040244569259
 30
0.0
 10
0.3047319925993092
 20
0.1668458845140787
 30
0.0
 10
0.2828443064248989
 20
0.1742452240934728
 30
0.0
  0
SPLINE
  5
F3
330
8A
100
AcDbEntity
  8
0
  6
Continuous
 62
     8
370
     0
100
AcDbSpline
210
0.0
220
0.0
230
1.0
 70
     8
 71
     3
 72
     8
 73
     4
 74
     0
 42
0.000000001
 43
0.00000001
 40
2.0
 40
2.0
 40
2.0
 40
2.0
 40
3.0
 40
3.0
 40
3.0
 40
3.0
 10
0.5248162966050102
 20
0.1604724827972793
 30
0.0
 10
0.4670281237972034
 20
0.1604200755152499
 30
0.0
 10
0.4092002997320391
 20
0.1594312530738381
 30
0.0
 10
0.3514706816879914
 20
0.1613415830313804
 30
0.0
  0
SPLINE
  5
F4
330
8A
100
AcDbEntity
  8
0
  6
Continuous
 62
     8
370
     0
100
AcDbSpline
210
0.0
220
0.0
230
1.0
 70
     8
 71
     3
 72
     8
 73
     4
 74
     0
 42
0.000000001
 43
0.00000001
 40
1.0
 40
1.0
 40
1.0
 40
1.0
 40
2.0
 40
2.0
 40
2.0
 40
2.0
 10
0.5390554012363384
 20
0.1631507100704226
 30
0.0
 10
0.5342511442393161
 20
0.1622059189671589
 30
0.0
 10
0.5295344120138378
 20
0.160476709191001
 30
0.0
 10
0.5248162966050102
 20
0.1604724827972793
 30
0.0
  0
SPLINE
  5
F5
330
8A
100
AcDbEntity
  8
0
  6
Continuous
 62
     8
370
     0
100
AcDbSpline
210
0.0
220
0.0
230
1.0
 70
    24
 71
     3
 72
     8
 73
     4
 74
     0
 42
0.000000001
 43
0.00000001
 40
0.0
 40
0.0
 40
0.0
 40
0.0
 40
1.0
 40
1.0
 40
1.0
 40
1.0
 10
0.5390554012363384
 20
0.4629506780027703
 30
0.0
 10
0.5390554012363384
 20
0.3598850725211094
 30
0.0
 10
0.5390554012363384
 20
0.2621132556935445
 30
0.0
 10
0.5390554012363384
 20
0.1631507100704226
 30
0.0
  0
ENDBLK
  5
8C
330
8A
100
AcDbEntity
  8
0
100
AcDbBlockEnd
  0
BLOCK
  5
F7
330
F6
100
AcDbEntity
  8
0
100
AcDbBlockBegin
  2
Block13_
 70
     0
 10
0.0
 20
0.0
 30
0.0
  3
Block13_
  1

  0
ARC
  5
F9
330
F6
100
AcDbEntity
  8
0
  6
Continuous
 62
   179
370
    25
100
AcDbCircle
 10
2.5172019737
 20
2.3389690527
 30
0.0
 40
0.0080000000011827
100
AcDbArc
 50
303.7489886178
 51
56.2510113989
  0
LINE
  5
FA
330
F6
100
AcDbEntity
  8
0
  6
Continuous
 62
   179
370
    25
100
AcDbLine
 10
1.5841519389
 20
1.6639690523
 30
0.0
 11
1.5312241879
 21
1.6639690523
 31
0.0
  0
LINE
  5
FB
330
F6
100
AcDbEntity
  8
0
  6
Continuous
 62
   179
370
    25
100
AcDbLine
 10
1.5172019737
 20
1.7039690527
 30
0.0
 11
1.5172019737
 21
1.6739690527
 31
0.0
  0
LINE
  5
FC
330
F6
100
AcDbEntity
  8
0
  6
Continuous
 62
   179
370
    25
100
AcDbLine
 10
2.5072019737
 20
1.7139690527
 30
0.0
 11
1.5272019737
 21
1.7139690527
 31
0.0
  0
LINE
  5
FD
330
F6
100
AcDbEntity
  8
0
  6
Continuous
 62
   179
370
    25
100
AcDbLine
 10
2.5172019737
 20
2.3240024231
 30
0.0
 11
2.5172019737
 21
1.7239690527
 31
0.0
  0
LINE
  5
FE
330
F6
100
AcDbEntity
  8
0
  6
Continuous
 62
   179
370
    25
100
AcDbLine
 10
2.5172019737
 20
2.5789690527
 30
0.0
 11
2.5172019737
 21
2.3539356822
 31
0.0
  0
LINE
  5
FF
330
F6
100
AcDbEntity
  8
0
  6
Continuous
 62
   179
370
    25
100
AcDbLine
 10
2.5572019737
 20
2.5889690527
 30
0.0
 11
2.5272019737
 21
2.5889690527
 31
0.0
  0
LINE
  5
100
330
F6
100
AcDbEntity
  8
0
  6
Continuous
 62
   179
370
    25
100
AcDbLine
 10
2.5672019737
 20
1.1289690527
 30
0.0
 11
2.5672019737
 21
2.5789690527
 31
0.0
  0
LINE
  5
101
330
F6
100
AcDbEntity
  8
0
  6
Continuous
 62
   179
370
    25
100
AcDbLine
 10
1.5272019737
 20
1.1139690527
 30
0.0
 11
2.5522019737
 21
1.1139690527
 31
0.0
  0
LINE
  5
102
330
F6
100
AcDbEntity
  8
0
  6
Continuous
 62
   179
370
    25
100
AcDbLine
 10
1.5172019737
 20
1.1539690527
 30
0.0
 11
1.5172019737
 21
1.1239690527
 31
0.0
  0
LINE
  5
103
330
F6
100
AcDbEntity
  8
0
  6
Continuous
 62
   179
370
    25
100
AcDbLine
 10
1.5272019737
 20
1.1639690527
 30
0.0
 11
1.5840375708
 21
1.1639690527
 31
0.0
  0
LINE
  5
104
330
F6
100
AcDbEntity
  8
0
  6
Continuous
 62
   179
370
    25
100
AcDbLine
 10
2.5072019737
 20
1.1639690527
 30
0.0
 11
1.6904053661
 21
1.1639690527
 31
0.0
  0
LINE
  5
105
330
F6
100
AcDbEntity
  8
0
  6
Continuous
 62
   179
370
    25
100
AcDbLine
 10
2.5172019737
 20
1.6539690527
 30
0.0
 11
2.5172019737
 21
1.1739690527
 31
0.0
  0
LINE
  5
106
330
F6
100
AcDbEntity
  8
0
  6
Continuous
 62
   179
370
    25
100
AcDbLine
 10
2.5072019737
 20
1.6639690527
 30
0.0
 11
1.6902909981
 21
1.6639690527
 31
0.0
  0
LINE
  5
107
330
F6
100
AcDbEntity
  8
0
  6
Continuous
 62
     7
370
    18
100
AcDbLine
 10
1.5172019737
 20
0.2850013513
 30
0.0
 11
1.6472019737
 21
0.2650013513
 31
0.0
  0
LINE
  5
108
330
F6
100
AcDbEntity
  8
0
  6
Continuous
 62
     7
370
    18
100
AcDbLine
 10
1.6472019737
 20
0.2650013513
 30
0.0
 11
1.6472019737
 21
0.3050013513
 31
0.0
  0
LINE
  5
109
330
F6
100
AcDbEntity
  8
0
  6
Continuous
 62
     7
370
    18
100
AcDbLine
 10
1.6472019737
 20
0.3050013513
 30
0.0
 11
1.5172019737
 21
0.2850013513
 31
0.0
  0
LINE
  5
10A
330
F6
100
AcDbEntity
  8
0
  6
Continuous
 62
     7
370
    18
100
AcDbLine
 10
2.5172019737
 20
0.2850013513
 30
0.0
 11
2.3872019737
 21
0.3050013513
 31
0.0
  0
LINE
  5
10B
330
F6
100
AcDbEntity
  8
0
  6
Continuous
 62
     7
370
    18
100
AcDbLine
 10
2.3872019737
 20
0.3050013513
 30
0.0
 11
2.3872019737
 21
0.2650013513
 31
0.0
  0
LINE
  5
10C
330
F6
100
AcDbEntity
  8
0
  6
Continuous
 62
     7
370
    18
100
AcDbLine
 10
2.3872019737
 20
0.2650013513
 30
0.0
 11
2.5172019737
 21
0.2850013513
 31
0.0
  0
LINE
  5
10D
330
F6
100
AcDbEntity
  8
0
  6
Continuous
 62
     7
370
    18
100
AcDbLine
 10
1.5172019737
 20
1.0239690527
 30
0.0
 11
1.5172019737
 21
0.2456312726
 31
0.0
  0
LINE
  5
10E
330
F6
100
AcDbEntity
  8
0
  6
Continuous
 62
     7
370
    18
100
AcDbLine
 10
2.5172019737
 20
1.0739690527
 30
0.0
 11
2.5172019737
 21
0.2456312726
 31
0.0
  0
LINE
  5
10F
330
F6
100
AcDbEntity
  8
0
  6
Continuous
 62
     7
370
    18
100
AcDbLine
 10
1.5172019737
 20
0.2850013513
 30
0.0
 11
1.8390250237
 21
0.2850013513
 31
0.0
  0
LINE
  5
110
330
F6
100
AcDbEntity
  8
0
  6
Continuous
 62
     7
370
    18
100
AcDbLine
 10
2.5172019737
 20
0.2850013513
 30
0.0
 11
2.1953789237
 21
0.2850013513
 31
0.0
  0
LINE
  5
111
330
F6
100
AcDbEntity
  8
0
  6
Continuous
 62
     7
370
    18
100
AcDbLine
 10
1.1235011863
 20
1.1639690527
 30
0.0
 11
1.1435011863
 21
1.2939690527
 31
0.0
  0
LINE
  5
112
330
F6
100
AcDbEntity
  8
0
  6
Continuous
 62
     7
370
    18
100
AcDbLine
 10
1.1435011863
 20
1.2939690527
 30
0.0
 11
1.1035011863
 21
1.2939690527
 31
0.0
  0
LINE
  5
113
330
F6
100
AcDbEntity
  8
0
  6
Continuous
 62
     7
370
    18
100
AcDbLine
 10
1.1035011863
 20
1.2939690527
 30
0.0
 11
1.1235011863
 21
1.1639690527
 31
0.0
  0
LINE
  5
114
330
F6
100
AcDbEntity
  8
0
  6
Continuous
 62
     7
370
    18
100
AcDbLine
 10
1.1235011863
 20
1.6639690527
 30
0.0
 11
1.1035011863
 21
1.5339690527
 31
0.0
  0
LINE
  5
115
330
F6
100
AcDbEntity
  8
0
  6
Continuous
 62
     7
370
    18
100
AcDbLine
 10
1.1035011863
 20
1.5339690527
 30
0.0
 11
1.1435011863
 21
1.5339690527
 31
0.0
  0
LINE
  5
116
330
F6
100
AcDbEntity
  8
0
  6
Continuous
 62
     7
370
    18
100
AcDbLine
 10
1.1435011863
 20
1.5339690527
 30
0.0
 11
1.1235011863
 21
1.6639690527
 31
0.0
  0
LINE
  5
117
330
F6
100
AcDbEntity
  8
0
  6
Continuous
 62
     7
370
    18
100
AcDbLine
 10
1.4272019737
 20
1.1639690527
 30
0.0
 11
1.0841311076
 21
1.1639690527
 31
0.0
  0
LINE
  5
118
330
F6
100
AcDbEntity
  8
0
  6
Continuous
 62
     7
370
    18
100
AcDbLine
 10
1.4312241878
 20
1.6639690527
 30
0.0
 11
1.0841311076
 21
1.6639690527
 31
0.0
  0
LINE
  5
119
330
F6
100
AcDbEntity
  8
0
  6
Continuous
 62
     7
370
    18
100
AcDbLine
 10
1.1235011863
 20
1.1639690527
 30
0.0
 11
1.1235011863
 21
1.6639690527
 31
0.0
  0
LINE
  5
11A
330
F6
100
AcDbEntity
  8
0
  6
Continuous
 62
     7
370
    18
100
AcDbLine
 10
1.1235011863
 20
1.7139690527
 30
0.0
 11
1.1435011863
 21
1.8439690527
 31
0.0
  0
LINE
  5
11B
330
F6
100
AcDbEntity
  8
0
  6
Continuous
 62
     7
370
    18
100
AcDbLine
 10
1.1435011863
 20
1.8439690527
 30
0.0
 11
1.1035011863
 21
1.8439690527
 31
0.0
  0
LINE
  5
11C
330
F6
100
AcDbEntity
  8
0
  6
Continuous
 62
     7
370
    18
100
AcDbLine
 10
1.1035011863
 20
1.8439690527
 30
0.0
 11
1.1235011863
 21
1.7139690527
 31
0.0
  0
LINE
  5
11D
330
F6
100
AcDbEntity
  8
0
  6
Continuous
 62
     7
370
    18
100
AcDbLine
 10
1.1235011863
 20
2.5889690527
 30
0.0
 11
1.1035011863
 21
2.4589690527
 31
0.0
  0
LINE
  5
11E
330
F6
100
AcDbEntity
  8
0
  6
Continuous
 62
     7
370
    18
100
AcDbLine
 10
1.1035011863
 20
2.4589690527
 30
0.0
 11
1.1435011863
 21
2.4589690527
 31
0.0
  0
LINE
  5
11F
330
F6
100
AcDbEntity
  8
0
  6
Continuous
 62
     7
370
    18
100
AcDbLine
 10
1.1435011863
 20
2.4589690527
 30
0.0
 11
1.1235011863
 21
2.5889690527
 31
0.0
  0
LINE
  5
120
330
F6
100
AcDbEntity
  8
0
  6
Continuous
 62
     7
370
    18
100
AcDbLine
 10
1.4272019737
 20
1.7139690527
 30
0.0
 11
1.0841311076
 21
1.7139690527
 31
0.0
  0
LINE
  5
121
330
F6
100
AcDbEntity
  8
0
  6
Continuous
 62
     7
370
    18
100
AcDbLine
 10
2.4272019737
 20
2.5889690527
 30
0.0
 11
1.0841311076
 21
2.5889690527
 31
0.0
  0
LINE
  5
122
330
F6
100
AcDbEntity
  8
0
  6
Continuous
 62
     7
370
    18
100
AcDbLine
 10
1.1235011863
 20
1.7139690527
 30
0.0
 11
1.1235011863
 21
2.5889690527
 31
0.0
  0
LINE
  5
123
330
F6
100
AcDbEntity
  8
0
  6
Continuous
 62
     7
370
    18
100
AcDbLine
 10
0.9136391172
 20
0.7825091453
 30
0.0
 11
1.1636391172
 21
0.7825091453
 31
0.0
  0
LINE
  5
124
330
F6
100
AcDbEntity
  8
0
  6
Continuous
 62
     7
370
    18
100
AcDbLine
 10
1.1636391172
 20
0.7825091453
 30
0.0
 11
1.5213317653
 21
1.1158724523
 31
0.0
  0
LINE
  5
125
330
F6
100
AcDbEntity
  8
0
  6
Continuous
 62
     7
370
    18
100
AcDbLine
 10
1.5213317653
 20
1.1158724523
 30
0.0
 11
1.4125947282
 21
1.0418707175
 31
0.0
  0
LINE
  5
126
330
F6
100
AcDbEntity
  8
0
  6
Continuous
 62
     7
370
    18
100
AcDbLine
 10
1.4125947282
 20
1.0418707175
 30
0.0
 11
1.4398663265
 21
1.0126087981
 31
0.0
  0
LINE
  5
127
330
F6
100
AcDbEntity
  8
0
  6
Continuous
 62
     7
370
    18
100
AcDbLine
 10
1.4398663265
 20
1.0126087981
 30
0.0
 11
1.5213317653
 21
1.1158724523
 31
0.0
  0
SPLINE
  5
128
330
F6
100
AcDbEntity
  8
0
  6
Continuous
 62
   179
370
    25
100
AcDbSpline
210
0.0
220
0.0
230
1.0
 70
     8
 71
     3
 72
     8
 73
     4
 74
     0
 42
0.000000001
 43
0.00000001
 40
13.0
 40
13.0
 40
13.0
 40
13.0
 40
13.20581766425436
 40
13.20581766425436
 40
13.20581766425436
 40
13.20581766425436
 10
1.527201973726773
 20
1.663969052684012
 30
0.0
 10
1.527877621103522
 20
1.663984176646485
 30
0.0
 10
1.529218359113941
 20
1.663996187830331
 30
0.0
 10
1.531224187758028
 20
1.664005086235544
 30
0.0
  0
SPLINE
  5
129
330
F6
100
AcDbEntity
  8
0
  6
Continuous
 62
   179
370
    25
100
AcDbSpline
210
0.0
220
0.0
230
1.0
 70
     8
 71
     3
 72
     8
 73
     4
 74
     0
 42
0.000000001
 43
0.00000001
 40
0.0
 40
0.0
 40
0.0
 40
0.0
 40
1.0
 40
1.0
 40
1.0
 40
1.0
 10
1.527201973726773
 20
1.663969052684012
 30
0.0
 10
1.521679126228353
 20
1.663969052683731
 30
0.0
 10
1.517201973727263
 20
1.668446205186185
 30
0.0
 10
1.517201973727018
 20
1.6739690526838
 30
0.0
  0
SPLINE
  5
12A
330
F6
100
AcDbEntity
  8
0
  6
Continuous
 62
   179
370
    25
100
AcDbSpline
210
0.0
220
0.0
230
1.0
 70
     8
 71
     3
 72
     8
 73
     4
 74
     0
 42
0.000000001
 43
0.00000001
 40
0.0
 40
0.0
 40
0.0
 40
0.0
 40
1.0
 40
1.0
 40
1.0
 40
1.0
 10
1.517201973727018
 20
1.703969052684846
 30
0.0
 10
1.517201973727263
 20
1.709491900182462
 30
0.0
 10
1.521679126228353
 20
1.713969052684986
 30
0.0
 10
1.527201973726773
 20
1.713969052684705
 30
0.0
  0
SPLINE
  5
12B
330
F6
100
AcDbEntity
  8
0
  6
Continuous
 62
   179
370
    25
100
AcDbSpline
210
0.0
220
0.0
230
1.0
 70
     8
 71
     3
 72
     8
 73
     4
 74
     0
 42
0.000000001
 43
0.00000001
 40
0.0
 40
0.0
 40
0.0
 40
0.0
 40
1.0
 40
1.0
 40
1.0
 40
1.0
 10
2.507201973727241
 20
1.713969052684705
 30
0.0
 10
2.512724821224857
 20
1.713969052685195
 30
0.0
 10
2.51720197372745
 20
1.718446205185481
 30
0.0
 10
2.51720197372745
 20
1.723969052684915
 30
0.0
  0
SPLINE
  5
12C
330
F6
100
AcDbEntity
  8
0
  6
Continuous
 62
   179
370
    25
100
AcDbSpline
210
0.0
220
0.0
230
1.0
 70
     8
 71
     3
 72
     8
 73
     4
 74
     0
 42
0.000000001
 43
0.00000001
 40
0.0
 40
0.0
 40
0.0
 40
0.0
 40
1.0
 40
1.0
 40
1.0
 40
1.0
 10
2.51720197372745
 20
2.324002423137646
 30
0.0
 10
2.51720197372745
 20
2.327342311806618
 30
0.0
 10
2.518869369479908
 20
2.330461723625794
 30
0.0
 10
2.52164641817226
 20
2.332317217330933
 30
0.0
  0
SPLINE
  5
12D
330
F6
100
AcDbEntity
  8
0
  6
Continuous
 62
   179
370
    25
100
AcDbSpline
210
0.0
220
0.0
230
1.0
 70
     8
 71
     3
 72
     8
 73
     4
 74
     0
 42
0.000000001
 43
0.00000001
 40
0.0
 40
0.0
 40
0.0
 40
0.0
 40
1.0
 40
1.0
 40
1.0
 40
1.0
 10
2.521646418170315
 20
2.345620888039327
 30
0.0
 10
2.518869369479888
 20
2.347476381744325
 30
0.0
 10
2.517201973727394
 20
2.350595793562593
 30
0.0
 10
2.517201973727394
 20
2.353935682231635
 30
0.0
  0
SPLINE
  5
12E
330
F6
100
AcDbEntity
  8
0
  6
Continuous
 62
   179
370
    25
100
AcDbSpline
210
0.0
220
0.0
230
1.0
 70
     8
 71
     3
 72
     8
 73
     4
 74
     0
 42
0.000000001
 43
0.00000001
 40
0.0
 40
0.0
 40
0.0
 40
0.0
 40
1.0
 40
1.0
 40
1.0
 40
1.0
 10
2.517201973727394
 20
2.578969052684785
 30
0.0
 10
2.517201973727464
 20
2.584491900183311
 30
0.0
 10
2.52167912622838
 20
2.588969052685066
 30
0.0
 10
2.527201973727638
 20
2.588969052684996
 30
0.0
  0
SPLINE
  5
12F
330
F6
100
AcDbEntity
  8
0
  6
Continuous
 62
   179
370
    25
100
AcDbSpline
210
0.0
220
0.0
230
1.0
 70
     8
 71
     3
 72
     8
 73
     4
 74
     0
 42
0.000000001
 43
0.00000001
 40
0.0
 40
0.0
 40
0.0
 40
0.0
 40
1.0
 40
1.0
 40
1.0
 40
1.0
 10
2.557201973726551
 20
2.588969052684996
 30
0.0
 10
2.56272482122581
 20
2.588969052685064
 30
0.0
 10
2.567201973726725
 20
2.58449190018331
 30
0.0
 10
2.56720197372676
 20
2.578969052684785
 30
0.0
  0
SPLINE
  5
130
330
F6
100
AcDbEntity
  8
0
  6
Continuous
 62
   179
370
    25
100
AcDbSpline
210
0.0
220
0.0
230
1.0
 70
     8
 71
     3
 72
     8
 73
     4
 74
     0
 42
0.000000001
 43
0.00000001
 40
0.0
 40
0.0
 40
0.0
 40
0.0
 40
1.0
 40
1.0
 40
1.0
 40
1.0
 10
2.56720197372676
 20
1.128969052684081
 30
0.0
 10
2.567201973726656
 20
1.120684781436853
 30
0.0
 10
2.560486244974443
 20
1.113969052684606
 30
0.0
 10
2.552201973727251
 20
1.113969052684746
 30
0.0
  0
SPLINE
  5
131
330
F6
100
AcDbEntity
  8
0
  6
Continuous
 62
   179
370
    25
100
AcDbSpline
210
0.0
220
0.0
230
1.0
 70
     8
 71
     3
 72
     8
 73
     4
 74
     0
 42
0.000000001
 43
0.00000001
 40
0.0
 40
0.0
 40
0.0
 40
0.0
 40
1.0
 40
1.0
 40
1.0
 40
1.0
 10
1.527201973726647
 20
1.113969052684746
 30
0.0
 10
1.521679126228228
 20
1.113969052684536
 30
0.0
 10
1.517201973727103
 20
1.118446205185102
 30
0.0
 10
1.517201973726823
 20
1.123969052684535
 30
0.0
  0
SPLINE
  5
132
330
F6
100
AcDbEntity
  8
0
  6
Continuous
 62
   179
370
    25
100
AcDbSpline
210
0.0
220
0.0
230
1.0
 70
     8
 71
     3
 72
     8
 73
     4
 74
     0
 42
0.000000001
 43
0.00000001
 40
0.0
 40
0.0
 40
0.0
 40
0.0
 40
1.0
 40
1.0
 40
1.0
 40
1.0
 10
1.517201973726823
 20
1.153969052685162
 30
0.0
 10
1.517201973726823
 20
1.159491900182637
 30
0.0
 10
1.521679126227738
 20
1.163969052683553
 30
0.0
 10
1.527201973726157
 20
1.163969052683553
 30
0.0
  0
SPLINE
  5
133
330
F6
100
AcDbEntity
  8
0
  6
Continuous
 62
   179
370
    25
100
AcDbSpline
210
0.0
220
0.0
230
1.0
 70
     8
 71
     3
 72
     8
 73
     4
 74
     0
 42
0.000000001
 43
0.00000001
 40
0.0
 40
0.0
 40
0.0
 40
0.0
 40
1.0
 40
1.0
 40
1.0
 40
1.0
 10
1.584037570754195
 20
1.163969052683553
 30
0.0
 10
1.59073903656314
 20
1.163969052683553
 30
0.0
 10
1.59662748568046
 20
1.168414258222577
 30
0.0
 10
1.598463582785753
 20
1.174859286647019
 30
0.0
  0
SPLINE
  5
134
330
F6
100
AcDbEntity
  8
0
  6
Continuous
 62
   179
370
    25
100
AcDbSpline
210
0.0
220
0.0
230
1.0
 70
     8
 71
     3
 72
    11
 73
     7
 74
     0
 42
0.000000001
 43
0.00000001
 40
0.0
 40
0.0
 40
0.0
 40
0.0
 40
1.0
 40
1.0
 40
1.0
 40
2.0
 40
2.0
 40
2.0
 40
2.0
 10
1.598463582785753
 20
1.174859286647019
 30
0.0
 10
1.602284479577435
 20
1.188271316087596
 30
0.0
 10
1.612767867581564
 20
1.198754704090816
 30
0.0
 10
1.626179897022142
 20
1.202575600883408
 30
0.0
 10
1.647585286205332
 20
1.208673692393027
 30
0.0
 10
1.669881262588518
 20
1.196264675830173
 30
0.0
 10
1.675979354098138
 20
1.174859286647019
 30
0.0
  0
SPLINE
  5
135
330
F6
100
AcDbEntity
  8
0
  6
Continuous
 62
   179
370
    25
100
AcDbSpline
210
0.0
220
0.0
230
1.0
 70
     8
 71
     3
 72
     8
 73
     4
 74
     0
 42
0.000000001
 43
0.00000001
 40
0.0
 40
0.0
 40
0.0
 40
0.0
 40
1.0
 40
1.0
 40
1.0
 40
1.0
 10
1.675979354098138
 20
1.174859286647019
 30
0.0
 10
1.677815451203431
 20
1.168414258222577
 30
0.0
 10
1.683703900321485
 20
1.163969052683553
 30
0.0
 10
1.69040536612952
 20
1.163969052683553
 30
0.0
  0
SPLINE
  5
136
330
F6
100
AcDbEntity
  8
0
  6
Continuous
 62
   179
370
    25
100
AcDbSpline
210
0.0
220
0.0
230
1.0
 70
     8
 71
     3
 72
     8
 73
     4
 74
     0
 42
0.000000001
 43
0.00000001
 40
0.0
 40
0.0
 40
0.0
 40
0.0
 40
1.0
 40
1.0
 40
1.0
 40
1.0
 10
2.507201973726626
 20
1.163969052683553
 30
0.0
 10
2.512724821224241
 20
1.163969052683553
 30
0.0
 10
2.517201973726835
 20
1.168446205186146
 30
0.0
 10
2.517201973726835
 20
1.173969052683762
 30
0.0
  0
SPLINE
  5
137
330
F6
100
AcDbEntity
  8
0
  6
Continuous
 62
   179
370
    25
100
AcDbSpline
210
0.0
220
0.0
230
1.0
 70
     8
 71
     3
 72
     8
 73
     4
 74
     0
 42
0.000000001
 43
0.00000001
 40
0.0
 40
0.0
 40
0.0
 40
0.0
 40
1.0
 40
1.0
 40
1.0
 40
1.0
 10
2.517201973726835
 20
1.653969052685185
 30
0.0
 10
2.51720197372736
 20
1.659491900182659
 30
0.0
 10
2.512724821225185
 20
1.663969052683995
 30
0.0
 10
2.50720197372757
 20
1.663969052684485
 30
0.0
  0
SPLINE
  5
138
330
F6
100
AcDbEntity
  8
0
  6
Continuous
 62
   179
370
    25
100
AcDbSpline
210
0.0
220
0.0
230
1.0
 70
     8
 71
     3
 72
     8
 73
     4
 74
     0
 42
0.000000001
 43
0.00000001
 40
0.0
 40
0.0
 40
0.0
 40
0.0
 40
0.721330213396722
 40
0.721330213396722
 40
0.721330213396722
 40
0.721330213396722
 10
1.690290998120249
 20
1.663969052684485
 30
0.0
 10
1.68544871903051
 20
1.663969052684485
 30
0.0
 10
1.68103172496417
 20
1.661648325047729
 30
0.0
 10
1.678260705606041
 20
1.657930357478978
 30
0.0
  0
SPLINE
  5
139
330
F6
100
AcDbEntity
  8
0
  6
Continuous
 62
   179
370
    25
100
AcDbSpline
210
0.0
220
0.0
230
1.0
 70
     8
 71
     3
 72
     8
 73
     4
 74
     0
 42
0.000000001
 43
0.00000001
 40
0.7279997164270008
 40
0.7279997164270008
 40
0.7279997164270008
 40
0.7279997164270008
 40
1.0
 40
1.0
 40
1.0
 40
1.0
 10
1.678260705606041
 20
1.657930357478978
 30
0.0
 10
1.677227499337111
 20
1.65651726235448
 30
0.0
 10
1.67643032302111
 20
1.654906597493868
 30
0.0
 10
1.675934725099688
 20
1.65314799209226
 30
0.0
  0
SPLINE
  5
13A
330
F6
100
AcDbEntity
  8
0
  6
Continuous
 62
   179
370
    25
100
AcDbSpline
210
0.0
220
0.0
230
1.0
 70
     8
 71
     3
 72
    11
 73
     7
 74
     0
 42
0.000000001
 43
0.00000001
 40
0.0
 40
0.0
 40
0.0
 40
0.0
 40
1.0
 40
1.0
 40
1.0
 40
2.0
 40
2.0
 40
2.0
 40
2.0
 10
1.675934725099688
 20
1.65314799209226
 30
0.0
 10
1.672129859839278
 20
1.639646610610745
 30
0.0
 10
1.661578254995903
 20
1.629095005768244
 30
0.0
 10
1.648076873514284
 20
1.62529014050773
 30
0.0
 10
1.626654225523238
 20
1.61925295910992
 30
0.0
 10
1.604393635514337
 20
1.631725344101179
 30
0.0
 10
1.598356454116318
 20
1.65314799209226
 30
0.0
  0
SPLINE
  5
13B
330
F6
100
AcDbEntity
  8
0
  6
Continuous
 62
   179
370
    25
100
AcDbSpline
210
0.0
220
0.0
230
1.0
 70
     8
 71
     3
 72
     8
 73
     4
 74
     0
 42
0.000000001
 43
0.00000001
 40
0.0
 40
0.0
 40
0.0
 40
0.0
 40
0.6551550735711205
 40
0.6551550735711205
 40
0.6551550735711205
 40
0.6551550735711205
 10
1.598356454116318
 20
1.65314799209226
 30
0.0
 10
1.597162729285501
 20
1.657383867276428
 30
0.0
 10
1.594219360305897
 20
1.660761447216485
 30
0.0
 10
1.590442328518557
 20
1.662587207924582
 30
0.0
  0
SPLINE
  5
13C
330
F6
100
AcDbEntity
  8
0
  6
Continuous
 62
   179
370
    25
100
AcDbSpline
210
0.0
220
0.0
230
1.0
 70
     8
 71
     3
 72
     8
 73
     4
 74
     0
 42
0.000000001
 43
0.00000001
 40
0.6683697437831582
 40
0.6683697437831582
 40
0.6683697437831582
 40
0.6683697437831582
 40
1.0
 40
1.0
 40
1.0
 40
1.0
 10
1.590442328518557
 20
1.662587207924582
 30
0.0
 10
1.588514505149014
 20
1.663478523810331
 30
0.0
 10
1.586378167939343
 20
1.663969052282395
 30
0.0
 10
1.584151938917407
 20
1.663969052282395
 30
0.0
  0
HATCH
  5
13D
330
F6
100
AcDbEntity
  8
0
  6
Continuous
 62
     7
100
AcDbHatch
 10
0.0
 20
0.0
 30
0.0
210
0.0
220
0.0
230
1.0
  2
SOLID
 70
     1
 71
     0
 91
        1
 92
        0
 93
        3
 72
     1
 10
1.647201973726823
 20
0.2650013513276232
 11
1.647201973726823
 21
0.3050013513276239
 72
     1
 10
1.647201973726823
 20
0.3050013513276239
 11
1.517201973726823
 21
0.2850013513276224
 72
     1
 10
1.517201973726823
 20
0.2850013513276224
 11
1.647201973726823
 21
0.2650013513276232
 97
        0
 75
     0
 76
     1
 98
        1
 10
0.0
 20
0.0
  0
HATCH
  5
13E
330
F6
100
AcDbEntity
  8
0
  6
Continuous
 62
     7
100
AcDbHatch
 10
0.0
 20
0.0
 30
0.0
210
0.0
220
0.0
230
1.0
  2
SOLID
 70
     1
 71
     0
 91
        1
 92
        0
 93
        3
 72
     1
 10
2.387201973726835
 20
0.3050013513276239
 11
2.387201973726835
 21
0.2650013513276232
 72
     1
 10
2.387201973726835
 20
0.2650013513276232
 11
2.517201973726835
 21
0.2850013513276224
 72
     1
 10
2.517201973726835
 20
0.2850013513276224
 11
2.387201973726835
 21
0.3050013513276239
 97
        0
 75
     0
 76
     1
 98
        1
 10
0.0
 20
0.0
  0
HATCH
  5
13F
330
F6
100
AcDbEntity
  8
0
  6
Continuous
 62
     7
100
AcDbHatch
 10
0.0
 20
0.0
 30
0.0
210
0.0
220
0.0
230
1.0
  2
SOLID
 70
     1
 71
     0
 91
        1
 92
        0
 93
        3
 72
     1
 10
1.143501186324828
 20
1.293969052683553
 11
1.103501186324828
 21
1.293969052683553
 72
     1
 10
1.103501186324828
 20
1.293969052683553
 11
1.123501186324827
 21
1.163969052683553
 72
     1
 10
1.123501186324827
 20
1.163969052683553
 11
1.143501186324828
 21
1.293969052683553
 97
        0
 75
     0
 76
     1
 98
        1
 10
0.0
 20
0.0
  0
HATCH
  5
140
330
F6
100
AcDbEntity
  8
0
  6
Continuous
 62
     7
100
AcDbHatch
 10
0.0
 20
0.0
 30
0.0
210
0.0
220
0.0
230
1.0
  2
SOLID
 70
     1
 71
     0
 91
        1
 92
        0
 93
        3
 72
     1
 10
1.103501186324828
 20
1.533969052683576
 11
1.143501186324828
 21
1.533969052683576
 72
     1
 10
1.143501186324828
 20
1.533969052683576
 11
1.123501186324827
 21
1.663969052683577
 72
     1
 10
1.123501186324827
 20
1.663969052683577
 11
1.103501186324828
 21
1.533969052683576
 97
        0
 75
     0
 76
     1
 98
        1
 10
0.0
 20
0.0
  0
HATCH
  5
141
330
F6
100
AcDbEntity
  8
0
  6
Continuous
 62
     7
100
AcDbHatch
 10
0.0
 20
0.0
 30
0.0
210
0.0
220
0.0
230
1.0
  2
SOLID
 70
     1
 71
     0
 91
        1
 92
        0
 93
        3
 72
     1
 10
1.143501186324828
 20
1.843969052684692
 11
1.103501186324828
 21
1.843969052684692
 72
     1
 10
1.103501186324828
 20
1.843969052684692
 11
1.123501186324827
 21
1.713969052684692
 72
     1
 10
1.123501186324827
 20
1.713969052684692
 11
1.143501186324828
 21
1.843969052684692
 97
        0
 75
     0
 76
     1
 98
        1
 10
0.0
 20
0.0
  0
HATCH
  5
142
330
F6
100
AcDbEntity
  8
0
  6
Continuous
 62
     7
100
AcDbHatch
 10
0.0
 20
0.0
 30
0.0
210
0.0
220
0.0
230
1.0
  2
SOLID
 70
     1
 71
     0
 91
        1
 92
        0
 93
        3
 72
     1
 10
1.103501186324828
 20
2.458969052684715
 11
1.143501186324828
 21
2.458969052684715
 72
     1
 10
1.143501186324828
 20
2.458969052684715
 11
1.123501186324827
 21
2.588969052684714
 72
     1
 10
1.123501186324827
 20
2.588969052684714
 11
1.103501186324828
 21
2.458969052684715
 97
        0
 75
     0
 76
     1
 98
        1
 10
0.0
 20
0.0
  0
HATCH
  5
143
330
F6
100
AcDbEntity
  8
0
  6
Continuous
 62
     7
100
AcDbHatch
 10
0.0
 20
0.0
 30
0.0
210
0.0
220
0.0
230
1.0
  2
SOLID
 70
     1
 71
     0
 91
        1
 92
        0
 93
        3
 72
     1
 10
1.412594728157967
 20
1.041870717526164
 11
1.439866326456818
 21
1.01260879813891
 72
     1
 10
1.439866326456818
 20
1.01260879813891
 11
1.521331765315967
 21
1.115872452303802
 72
     1
 10
1.521331765315967
 20
1.115872452303802
 11
1.412594728157967
 21
1.041870717526164
 97
        0
 75
     0
 76
     1
 98
        1
 10
0.0
 20
0.0
  0
MTEXT
  5
145
330
F6
100
AcDbEntity
  8
0
  6
Continuous
 62
     7
370
    18
100
AcDbMText
 10
0.0060193768
 20
0.8531158087
 30
0.0
 40
0.1377952756
 41
0.0
 71
     1
 72
     1
  1
1/16" LEG
  7
SLDTEXTSTYLE1
 73
     1
 44
1.0
  0
MTEXT
  5
146
330
F6
100
AcDbEntity
  8
0
  6
Continuous
 62
     7
370
    18
100
AcDbMText
 10
0.7168047459
 20
2.208803044
 30
0.0
 40
0.1377952756
 41
0.0
 71
     1
 72
     1
  1
7/8"
  7
SLDTEXTSTYLE1
 73
     1
 44
1.0
  0
MTEXT
  5
147
330
F6
100
AcDbEntity
  8
0
  6
Continuous
 62
     7
370
    18
100
AcDbMText
 10
0.6729856599
 20
1.4826014346
 30
0.0
 40
0.14
 41
0.0
 71
     1
 72
     1
  1
1/2"
  7
SLDTEXTSTYLE1
 73
     1
 44
1.0
  0
MTEXT
  5
148
330
F6
100
AcDbEntity
  8
0
  6
Continuous
 62
     7
370
    18
100
AcDbMText
 10
2.0080488112
 20
0.8085768218
 30
0.0
 40
0.1354166667
 41
0.0
 71
     2
 72
     1
  1
1/2"
  7
SLDTEXTSTYLE1
 73
     1
 44
1.0
  0
MTEXT
  5
149
330
F6
100
AcDbEntity
  8
0
  6
Continuous
 62
     7
370
    18
100
AcDbMText
 10
2.0080488112
 20
0.5886511924
 30
0.0
 40
0.1354166667
 41
0.0
 71
     2
 72
     1
  1
3/4"
  7
SLDTEXTSTYLE1
 73
     1
 44
1.0
  0
MTEXT
  5
14B
330
F6
100
AcDbEntity
  8
0
  6
Continuous
 62
     7
370
    18
100
AcDbMText
 10
2.0182990883
 20
0.368725563
 30
0.0
 40
0.1354166667
 41
0.0
 71
     2
 72
     1
  1
- or -
  7
SLDTEXTSTYLE2
 73
     1
 44
1.0
  0
MTEXT
  5
14C
330
F6
100
AcDbEntity
  8
0
  6
Continuous
 62
     7
370
    18
100
AcDbMText
 10
2.0135971336
 20
0.1487999336
 30
0.0
 40
0.1354166667
 41
0.0
 71
     2
 72
     1
  1
1"
  7
SLDTEXTSTYLE1
 73
     1
 44
1.0
  0
ENDBLK
  5
F8
330
F6
100
AcDbEntity
  8
0
100
AcDbBlockEnd
  0
BLOCK
  5
14E
330
14D
100
AcDbEntity
  8
0
100
AcDbBlockBegin
  2
Block1
 70
     0
 10
0.0
 20
0.0
 30
0.0
  3
Block1
  1

  0
LINE
  5
150
330
14D
100
AcDbEntity
  8
0
  6
Continuous
 62
   179
370
    25
100
AcDbLine
 10
4.3429620191
 20
0.6347999171
 30
0.0
 11
8.3188253162
 21
0.6347999171
 31
0.0
  0
LINE
  5
151
330
14D
100
AcDbEntity
  8
0
  6
Continuous
 62
   179
370
    25
100
AcDbLine
 10
8.3188253162
 20
0.2151590181
 30
0.0
 11
4.2440406018
 21
0.2151590181
 31
0.0
  0
LINE
  5
152
330
14D
100
AcDbEntity
  8
0
  6
Continuous
 62
   179
370
    25
100
AcDbLine
 10
8.3188253162
 20
0.6850000005
 30
0.0
 11
4.331748602
 21
0.6850000005
 31
0.0
  0
LINE
  5
153
330
14D
100
AcDbEntity
  8
0
  6
Continuous
 62
   179
370
    25
100
AcDbLine
 10
8.3188253162
 20
0.6749999977
 30
0.0
 11
8.3188253162
 21
0.6850000005
 31
0.0
  0
LINE
  5
154
330
14D
100
AcDbEntity
  8
0
  6
Continuous
 62
   179
370
    25
100
AcDbLine
 10
8.3188253162
 20
0.6749999977
 30
0.0
 11
4.3339826028
 21
0.6749999977
 31
0.0
  0
LINE
  5
155
330
14D
100
AcDbEntity
  8
0
  6
Continuous
 62
   179
370
    25
100
AcDbLine
 10
8.3188253162
 20
0.7250000026
 30
0.0
 11
4.3228137718
 21
0.7250000026
 31
0.0
  0
LINE
  5
156
330
14D
100
AcDbEntity
  8
0
  6
Continuous
 62
   179
370
    25
100
AcDbLine
 10
8.3188253162
 20
0.7149999998
 30
0.0
 11
4.3250477727
 21
0.7149999998
 31
0.0
  0
LINE
  5
157
330
14D
100
AcDbEntity
  8
0
  6
Continuous
 62
   179
370
    25
100
AcDbLine
 10
8.3188253162
 20
0.7149999998
 30
0.0
 11
8.3188253162
 21
0.7250000026
 31
0.0
  0
LINE
  5
158
330
14D
100
AcDbEntity
  8
0
  6
Continuous
 62
   179
370
    25
100
AcDbLine
 10
8.3188253162
 20
0.1649999642
 30
0.0
 11
4.2552446324
 21
0.1649999642
 31
0.0
  0
LINE
  5
159
330
14D
100
AcDbEntity
  8
0
  6
Continuous
 62
   179
370
    25
100
AcDbLine
 10
8.3188253162
 20
0.1350000108
 30
0.0
 11
4.2619454617
 21
0.1350000108
 31
0.0
  0
LINE
  5
15A
330
14D
100
AcDbEntity
  8
0
  6
Continuous
 62
   179
370
    25
100
AcDbLine
 10
8.3188253162
 20
0.1649999642
 30
0.0
 11
8.3188253162
 21
0.1350000108
 31
0.0
  0
LINE
  5
15B
330
14D
100
AcDbEntity
  8
0
  6
Continuous
 62
   179
370
    25
100
AcDbLine
 10
8.3188253162
 20
0.1250000263
 30
0.0
 11
4.2641794625
 21
0.1250000263
 31
0.0
  0
LINE
  5
15C
330
14D
100
AcDbEntity
  8
0
  6
Continuous
 62
   179
370
    25
100
AcDbLine
 10
8.3188253162
 20
0.1250000263
 30
0.0
 11
8.3188253162
 21
0.1350000108
 31
0.0
  0
LINE
  5
15D
330
14D
100
AcDbEntity
  8
0
  6
Continuous
 62
   179
370
    25
100
AcDbLine
 10
8.3188253162
 20
0.1750000221
 30
0.0
 11
4.2530106315
 21
0.1750000221
 31
0.0
  0
LINE
  5
15E
330
14D
100
AcDbEntity
  8
0
  6
Continuous
 62
   179
370
    25
100
AcDbLine
 10
8.3188253162
 20
0.1649999642
 30
0.0
 11
8.3188253162
 21
0.1750000221
 31
0.0
  0
LINE
  5
15F
330
14D
100
AcDbEntity
  8
0
  6
Continuous
 62
   179
370
    25
100
AcDbLine
 10
8.3188253162
 20
0.7149999998
 30
0.0
 11
8.3188253162
 21
0.6850000005
 31
0.0
  0
LINE
  5
160
330
14D
100
AcDbEntity
  8
0
  6
Continuous
 62
   179
370
    25
100
AcDbLine
 10
8.3188253162
 20
0.1858902629
 30
0.0
 11
4.2505783396
 21
0.1858902629
 31
0.0
  0
LINE
  5
161
330
14D
100
AcDbEntity
  8
0
  6
Continuous
 62
   179
370
    25
100
AcDbLine
 10
8.3188253162
 20
0.1750000221
 30
0.0
 11
8.3188253162
 21
0.1858902629
 31
0.0
  0
LINE
  5
162
330
14D
100
AcDbEntity
  8
0
  6
Continuous
 62
   179
370
    25
100
AcDbLine
 10
8.3188253162
 20
0.673618157
 30
0.0
 11
4.3342911859
 21
0.673618157
 31
0.0
  0
LINE
  5
163
330
14D
100
AcDbEntity
  8
0
  6
Continuous
 62
   179
370
    25
100
AcDbLine
 10
8.3188253162
 20
0.664178946
 30
0.0
 11
4.3363996416
 21
0.664178946
 31
0.0
  0
LINE
  5
164
330
14D
100
AcDbEntity
  8
0
  6
Continuous
 62
   179
370
    25
100
AcDbLine
 10
8.3188253162
 20
0.664178946
 30
0.0
 11
8.3188253162
 21
0.673618157
 31
0.0
  0
LINE
  5
165
330
14D
100
AcDbEntity
  8
0
  6
Continuous
 62
   179
370
    25
100
AcDbLine
 10
8.3188253162
 20
0.1858902629
 30
0.0
 11
8.3188253162
 21
0.2148586483
 31
0.0
  0
LINE
  5
166
330
14D
100
AcDbEntity
  8
0
  6
Continuous
 62
   179
370
    25
100
AcDbLine
 10
8.3188253162
 20
0.7349999962
 30
0.0
 11
4.320579771
 21
0.7349999962
 31
0.0
  0
LINE
  5
167
330
14D
100
AcDbEntity
  8
0
  6
Continuous
 62
   179
370
    25
100
AcDbLine
 10
8.3188253162
 20
0.7250000026
 30
0.0
 11
8.3188253162
 21
0.7349999962
 31
0.0
  0
LINE
  5
168
330
14D
100
AcDbEntity
  8
0
  6
Continuous
 62
   179
370
    25
100
AcDbLine
 10
8.3188253162
 20
1.3649666421
 30
0.0
 11
4.3633167706
 21
1.3649666421
 31
0.0
  0
LINE
  5
169
330
14D
100
AcDbEntity
  8
0
  6
Continuous
 62
   179
370
    25
100
AcDbLine
 10
8.3188253162
 20
1.3566518382
 30
0.0
 11
4.3550026267
 21
1.3566518382
 31
0.0
  0
LINE
  5
16A
330
14D
100
AcDbEntity
  8
0
  6
Continuous
 62
   179
370
    25
100
AcDbLine
 10
8.3188253162
 20
1.3566518382
 30
0.0
 11
8.3188253162
 21
1.3649666421
 31
0.0
  0
LINE
  5
16B
330
14D
100
AcDbEntity
  8
0
  6
Continuous
 62
   179
370
    25
100
AcDbLine
 10
8.3188253162
 20
1.5999999737
 30
0.0
 11
4.3200212708
 21
1.5999999737
 31
0.0
  0
LINE
  5
16C
330
14D
100
AcDbEntity
  8
0
  6
Continuous
 62
   179
370
    25
100
AcDbLine
 10
8.3188253162
 20
1.5899999892
 30
0.0
 11
4.3222552716
 21
1.5899999892
 31
0.0
  0
LINE
  5
16D
330
14D
100
AcDbEntity
  8
0
  6
Continuous
 62
   179
370
    25
100
AcDbLine
 10
8.3188253162
 20
1.5899999892
 30
0.0
 11
8.3188253162
 21
1.5999999737
 31
0.0
  0
LINE
  5
16E
330
14D
100
AcDbEntity
  8
0
  6
Continuous
 62
   179
370
    25
100
AcDbLine
 10
8.3188253162
 20
1.5899999892
 30
0.0
 11
8.3188253162
 21
1.3649666421
 31
0.0
  0
LINE
  5
16F
330
14D
100
AcDbEntity
  8
0
  6
Continuous
 62
   179
370
    25
100
AcDbLine
 10
8.3188253162
 20
0.6282238264
 30
0.0
 11
8.3188253162
 21
0.2213690331
 31
0.0
  0
LINE
  5
170
330
14D
100
AcDbEntity
  8
0
  6
Continuous
 62
   179
370
    25
100
AcDbLine
 10
8.3188253162
 20
1.3350333846
 30
0.0
 11
4.3333842097
 21
1.3350333846
 31
0.0
  0
LINE
  5
171
330
14D
100
AcDbEntity
  8
0
  6
Continuous
 62
   179
370
    25
100
AcDbLine
 10
8.3188253162
 20
1.3350333846
 30
0.0
 11
8.3188253162
 21
0.7349999962
 31
0.0
  0
LINE
  5
172
330
14D
100
AcDbEntity
  8
0
  6
Continuous
 62
   179
370
    25
100
AcDbLine
 10
8.3188253162
 20
1.3433481519
 30
0.0
 11
4.3416983537
 21
1.3433481519
 31
0.0
  0
LINE
  5
173
330
14D
100
AcDbEntity
  8
0
  6
Continuous
 62
   179
370
    25
100
AcDbLine
 10
8.3188253162
 20
1.3350333846
 30
0.0
 11
8.3188253162
 21
1.3433481519
 31
0.0
  0
LINE
  5
174
330
14D
100
AcDbEntity
  8
0
  6
Continuous
 62
   179
370
    25
100
AcDbLine
 10
8.3188253162
 20
1.3566518382
 30
0.0
 11
8.3188253162
 21
1.3433481519
 31
0.0
  0
LINE
  5
175
330
14D
100
AcDbEntity
  8
0
  6
Continuous
 62
   179
370
    25
100
AcDbLine
 10
0.0
 20
0.6347999171
 30
0.0
 11
4.1429616335
 21
0.6347999171
 31
0.0
  0
LINE
  5
176
330
14D
100
AcDbEntity
  8
0
  6
Continuous
 62
   179
370
    25
100
AcDbLine
 10
4.0440402162
 20
0.2151590181
 30
0.0
 11
0.0
 21
0.2151590181
 31
0.0
  0
LINE
  5
177
330
14D
100
AcDbEntity
  8
0
  6
Continuous
 62
   179
370
    25
100
AcDbLine
 10
4.1317482164
 20
0.6850000005
 30
0.0
 11
0.0
 21
0.6850000005
 31
0.0
  0
LINE
  5
178
330
14D
100
AcDbEntity
  8
0
  6
Continuous
 62
   179
370
    25
100
AcDbLine
 10
4.1339822172
 20
0.6749999977
 30
0.0
 11
0.0
 21
0.6749999977
 31
0.0
  0
LINE
  5
179
330
14D
100
AcDbEntity
  8
0
  6
Continuous
 62
   179
370
    25
100
AcDbLine
 10
0.0
 20
0.6749999977
 30
0.0
 11
0.0
 21
0.6850000005
 31
0.0
  0
LINE
  5
17A
330
14D
100
AcDbEntity
  8
0
  6
Continuous
 62
   179
370
    25
100
AcDbLine
 10
4.1228133862
 20
0.7250000026
 30
0.0
 11
0.0
 21
0.7250000026
 31
0.0
  0
LINE
  5
17B
330
14D
100
AcDbEntity
  8
0
  6
Continuous
 62
   179
370
    25
100
AcDbLine
 10
4.1250473871
 20
0.7149999998
 30
0.0
 11
0.0
 21
0.7149999998
 31
0.0
  0
LINE
  5
17C
330
14D
100
AcDbEntity
  8
0
  6
Continuous
 62
   179
370
    25
100
AcDbLine
 10
0.0
 20
0.7149999998
 30
0.0
 11
0.0
 21
0.7250000026
 31
0.0
  0
LINE
  5
17D
330
14D
100
AcDbEntity
  8
0
  6
Continuous
 62
   179
370
    25
100
AcDbLine
 10
4.0552442468
 20
0.1649999642
 30
0.0
 11
0.0
 21
0.1649999642
 31
0.0
  0
LINE
  5
17E
330
14D
100
AcDbEntity
  8
0
  6
Continuous
 62
   179
370
    25
100
AcDbLine
 10
4.0619450761
 20
0.1350000108
 30
0.0
 11
0.0
 21
0.1350000108
 31
0.0
  0
LINE
  5
17F
330
14D
100
AcDbEntity
  8
0
  6
Continuous
 62
   179
370
    25
100
AcDbLine
 10
0.0
 20
0.1649999642
 30
0.0
 11
0.0
 21
0.1350000108
 31
0.0
  0
LINE
  5
180
330
14D
100
AcDbEntity
  8
0
  6
Continuous
 62
   179
370
    25
100
AcDbLine
 10
4.0641790769
 20
0.1250000263
 30
0.0
 11
0.0
 21
0.1250000263
 31
0.0
  0
LINE
  5
181
330
14D
100
AcDbEntity
  8
0
  6
Continuous
 62
   179
370
    25
100
AcDbLine
 10
0.0
 20
0.1250000263
 30
0.0
 11
0.0
 21
0.1350000108
 31
0.0
  0
LINE
  5
182
330
14D
100
AcDbEntity
  8
0
  6
Continuous
 62
   179
370
    25
100
AcDbLine
 10
4.0530102459
 20
0.1750000221
 30
0.0
 11
0.0
 21
0.1750000221
 31
0.0
  0
LINE
  5
183
330
14D
100
AcDbEntity
  8
0
  6
Continuous
 62
   179
370
    25
100
AcDbLine
 10
0.0
 20
0.1649999642
 30
0.0
 11
0.0
 21
0.1750000221
 31
0.0
  0
LINE
  5
184
330
14D
100
AcDbEntity
  8
0
  6
Continuous
 62
   179
370
    25
100
AcDbLine
 10
0.0
 20
0.7149999998
 30
0.0
 11
0.0
 21
0.6850000005
 31
0.0
  0
LINE
  5
185
330
14D
100
AcDbEntity
  8
0
  6
Continuous
 62
   179
370
    25
100
AcDbLine
 10
4.050577954
 20
0.1858902629
 30
0.0
 11
0.0
 21
0.1858902629
 31
0.0
  0
LINE
  5
186
330
14D
100
AcDbEntity
  8
0
  6
Continuous
 62
   179
370
    25
100
AcDbLine
 10
0.0
 20
0.1750000221
 30
0.0
 11
0.0
 21
0.1858902629
 31
0.0
  0
LINE
  5
187
330
14D
100
AcDbEntity
  8
0
  6
Continuous
 62
   179
370
    25
100
AcDbLine
 10
4.1342908003
 20
0.673618157
 30
0.0
 11
0.0
 21
0.673618157
 31
0.0
  0
LINE
  5
188
330
14D
100
AcDbEntity
  8
0
  6
Continuous
 62
   179
370
    25
100
AcDbLine
 10
4.136399256
 20
0.664178946
 30
0.0
 11
0.0
 21
0.664178946
 31
0.0
  0
LINE
  5
189
330
14D
100
AcDbEntity
  8
0
  6
Continuous
 62
   179
370
    25
100
AcDbLine
 10
0.0
 20
0.664178946
 30
0.0
 11
0.0
 21
0.673618157
 31
0.0
  0
LINE
  5
18A
330
14D
100
AcDbEntity
  8
0
  6
Continuous
 62
   179
370
    25
100
AcDbLine
 10
0.0
 20
0.1858902629
 30
0.0
 11
0.0
 21
0.2148586483
 31
0.0
  0
LINE
  5
18B
330
14D
100
AcDbEntity
  8
0
  6
Continuous
 62
   179
370
    25
100
AcDbLine
 10
4.1205793854
 20
0.7349999962
 30
0.0
 11
0.0
 21
0.7349999962
 31
0.0
  0
LINE
  5
18C
330
14D
100
AcDbEntity
  8
0
  6
Continuous
 62
   179
370
    25
100
AcDbLine
 10
0.0
 20
0.7250000026
 30
0.0
 11
0.0
 21
0.7349999962
 31
0.0
  0
LINE
  5
18D
330
14D
100
AcDbEntity
  8
0
  6
Continuous
 62
   179
370
    25
100
AcDbLine
 10
4.163316385
 20
1.3649666421
 30
0.0
 11
0.0
 21
1.3649666421
 31
0.0
  0
LINE
  5
18E
330
14D
100
AcDbEntity
  8
0
  6
Continuous
 62
   179
370
    25
100
AcDbLine
 10
4.1550022411
 20
1.3566518382
 30
0.0
 11
0.0
 21
1.3566518382
 31
0.0
  0
LINE
  5
18F
330
14D
100
AcDbEntity
  8
0
  6
Continuous
 62
   179
370
    25
100
AcDbLine
 10
0.0
 20
1.3566518382
 30
0.0
 11
0.0
 21
1.3649666421
 31
0.0
  0
LINE
  5
190
330
14D
100
AcDbEntity
  8
0
  6
Continuous
 62
   179
370
    25
100
AcDbLine
 10
4.1200220585
 20
1.5999999737
 30
0.0
 11
0.0
 21
1.5999999737
 31
0.0
  0
LINE
  5
191
330
14D
100
AcDbEntity
  8
0
  6
Continuous
 62
   179
370
    25
100
AcDbLine
 10
4.122254886
 20
1.5899999892
 30
0.0
 11
0.0
 21
1.5899999892
 31
0.0
  0
LINE
  5
192
330
14D
100
AcDbEntity
  8
0
  6
Continuous
 62
   179
370
    25
100
AcDbLine
 10
0.0
 20
1.5899999892
 30
0.0
 11
0.0
 21
1.5999999737
 31
0.0
  0
LINE
  5
193
330
14D
100
AcDbEntity
  8
0
  6
Continuous
 62
   179
370
    25
100
AcDbLine
 10
0.0
 20
1.5899999892
 30
0.0
 11
0.0
 21
1.3649666421
 31
0.0
  0
LINE
  5
194
330
14D
100
AcDbEntity
  8
0
  6
Continuous
 62
   179
370
    25
100
AcDbLine
 10
0.0
 20
0.6282238264
 30
0.0
 11
0.0
 21
0.2213690331
 31
0.0
  0
LINE
  5
195
330
14D
100
AcDbEntity
  8
0
  6
Continuous
 62
   179
370
    25
100
AcDbLine
 10
4.1333838241
 20
1.3350333846
 30
0.0
 11
0.0
 21
1.3350333846
 31
0.0
  0
LINE
  5
196
330
14D
100
AcDbEntity
  8
0
  6
Continuous
 62
   179
370
    25
100
AcDbLine
 10
0.0
 20
1.3350333846
 30
0.0
 11
0.0
 21
0.7349999962
 31
0.0
  0
LINE
  5
197
330
14D
100
AcDbEntity
  8
0
  6
Continuous
 62
   179
370
    25
100
AcDbLine
 10
4.1416979681
 20
1.3433481519
 30
0.0
 11
0.0
 21
1.3433481519
 31
0.0
  0
LINE
  5
198
330
14D
100
AcDbEntity
  8
0
  6
Continuous
 62
   179
370
    25
100
AcDbLine
 10
0.0
 20
1.3350333846
 30
0.0
 11
0.0
 21
1.3433481519
 31
0.0
  0
LINE
  5
199
330
14D
100
AcDbEntity
  8
0
  6
Continuous
 62
   179
370
    25
100
AcDbLine
 10
0.0
 20
1.3566518382
 30
0.0
 11
0.0
 21
1.3433481519
 31
0.0
  0
LINE
  5
19A
330
14D
100
AcDbEntity
  8
0
  6
Continuous
 62
     7
370
    18
100
AcDbLine
 10
0.0
 20
2.136373287
 30
0.0
 11
0.13
 21
2.116373287
 31
0.0
  0
LINE
  5
19B
330
14D
100
AcDbEntity
  8
0
  6
Continuous
 62
     7
370
    18
100
AcDbLine
 10
0.13
 20
2.116373287
 30
0.0
 11
0.13
 21
2.156373287
 31
0.0
  0
LINE
  5
19C
330
14D
100
AcDbEntity
  8
0
  6
Continuous
 62
     7
370
    18
100
AcDbLine
 10
0.13
 20
2.156373287
 30
0.0
 11
0.0
 21
2.136373287
 31
0.0
  0
LINE
  5
19D
330
14D
100
AcDbEntity
  8
0
  6
Continuous
 62
     7
370
    18
100
AcDbLine
 10
8.3188253162
 20
2.136373287
 30
0.0
 11
8.1888253162
 21
2.156373287
 31
0.0
  0
LINE
  5
19E
330
14D
100
AcDbEntity
  8
0
  6
Continuous
 62
     7
370
    18
100
AcDbLine
 10
8.1888253162
 20
2.156373287
 30
0.0
 11
8.1888253162
 21
2.116373287
 31
0.0
  0
LINE
  5
19F
330
14D
100
AcDbEntity
  8
0
  6
Continuous
 62
     7
370
    18
100
AcDbLine
 10
8.1888253162
 20
2.116373287
 30
0.0
 11
8.3188253162
 21
2.136373287
 31
0.0
  0
LINE
  5
1A0
330
14D
100
AcDbEntity
  8
0
  6
Continuous
 62
     7
370
    18
100
AcDbLine
 10
0.0
 20
1.7
 30
0.0
 11
0.0
 21
2.1757433657
 31
0.0
  0
LINE
  5
1A1
330
14D
100
AcDbEntity
  8
0
  6
Continuous
 62
     7
370
    18
100
AcDbLine
 10
8.3188253162
 20
1.7
 30
0.0
 11
8.3188253162
 21
2.1757433657
 31
0.0
  0
LINE
  5
1A2
330
14D
100
AcDbEntity
  8
0
  6
Continuous
 62
     7
370
    18
100
AcDbLine
 10
0.0
 20
2.136373287
 30
0.0
 11
8.3188253162
 21
2.136373287
 31
0.0
  0
LINE
  5
1A3
330
14D
100
AcDbEntity
  8
0
  6
Continuous
 62
     7
370
    18
100
AcDbLine
 10
8.7126201297
 20
1.6
 30
0.0
 11
8.6926201297
 21
1.47
 31
0.0
  0
LINE
  5
1A4
330
14D
100
AcDbEntity
  8
0
  6
Continuous
 62
     7
370
    18
100
AcDbLine
 10
8.6926201297
 20
1.47
 30
0.0
 11
8.7326201297
 21
1.47
 31
0.0
  0
LINE
  5
1A5
330
14D
100
AcDbEntity
  8
0
  6
Continuous
 62
     7
370
    18
100
AcDbLine
 10
8.7326201297
 20
1.47
 30
0.0
 11
8.7126201297
 21
1.6
 31
0.0
  0
LINE
  5
1A6
330
14D
100
AcDbEntity
  8
0
  6
Continuous
 62
     7
370
    18
100
AcDbLine
 10
8.7126201297
 20
0.125
 30
0.0
 11
8.7326201297
 21
0.255
 31
0.0
  0
LINE
  5
1A7
330
14D
100
AcDbEntity
  8
0
  6
Continuous
 62
     7
370
    18
100
AcDbLine
 10
8.7326201297
 20
0.255
 30
0.0
 11
8.6926201297
 21
0.255
 31
0.0
  0
LINE
  5
1A8
330
14D
100
AcDbEntity
  8
0
  6
Continuous
 62
     7
370
    18
100
AcDbLine
 10
8.6926201297
 20
0.255
 30
0.0
 11
8.7126201297
 21
0.125
 31
0.0
  0
LINE
  5
1A9
330
14D
100
AcDbEntity
  8
0
  6
Continuous
 62
     7
370
    18
100
AcDbLine
 10
8.4188253162
 20
1.6
 30
0.0
 11
8.7519902084
 21
1.6
 31
0.0
  0
LINE
  5
1AA
330
14D
100
AcDbEntity
  8
0
  6
Continuous
 62
     7
370
    18
100
AcDbLine
 10
8.4188253162
 20
0.125
 30
0.0
 11
8.7519902084
 21
0.125
 31
0.0
  0
LINE
  5
1AB
330
14D
100
AcDbEntity
  8
0
  6
Continuous
 62
     7
370
    18
100
AcDbLine
 10
8.7126201297
 20
1.6
 30
0.0
 11
8.7126201297
 21
0.125
 31
0.0
  0
LINE
  5
1AC
330
14D
100
AcDbEntity
  8
0
  6
HIDDEN
 62
   179
370
    18
100
AcDbLine
 10
4.092100268
 20
1.725
 30
0.0
 11
4.1708404255
 21
1.3724901575
 31
0.0
  0
LINE
  5
1AD
330
14D
100
AcDbEntity
  8
0
  6
HIDDEN
 62
   179
370
    18
100
AcDbLine
 10
4.1708404255
 20
1.3724901575
 30
0.0
 11
4.0133601105
 21
1.2150098425
 31
0.0
  0
LINE
  5
1AE
330
14D
100
AcDbEntity
  8
0
  6
HIDDEN
 62
   179
370
    18
100
AcDbLine
 10
4.0133601105
 20
1.2150098425
 30
0.0
 11
4.1708404255
 21
0.5099901575
 31
0.0
  0
LINE
  5
1AF
330
14D
100
AcDbEntity
  8
0
  6
HIDDEN
 62
   179
370
    18
100
AcDbLine
 10
4.1708404255
 20
0.5099901575
 30
0.0
 11
4.0133601105
 21
0.3525098425
 31
0.0
  0
LINE
  5
1B0
330
14D
100
AcDbEntity
  8
0
  6
HIDDEN
 62
   179
370
    18
100
AcDbLine
 10
4.0133601105
 20
0.3525098425
 30
0.0
 11
4.092100268
 21
0.0
 31
0.0
  0
LINE
  5
1B1
330
14D
100
AcDbEntity
  8
0
  6
HIDDEN
 62
   179
370
    18
100
AcDbLine
 10
4.292100268
 20
1.725
 30
0.0
 11
4.3708404255
 21
1.3724901575
 31
0.0
  0
LINE
  5
1B2
330
14D
100
AcDbEntity
  8
0
  6
HIDDEN
 62
   179
370
    18
100
AcDbLine
 10
4.3708404255
 20
1.3724901575
 30
0.0
 11
4.2133601105
 21
1.2150098425
 31
0.0
  0
LINE
  5
1B3
330
14D
100
AcDbEntity
  8
0
  6
HIDDEN
 62
   179
370
    18
100
AcDbLine
 10
4.2133601105
 20
1.2150098425
 30
0.0
 11
4.3708404255
 21
0.5099901575
 31
0.0
  0
LINE
  5
1B4
330
14D
100
AcDbEntity
  8
0
  6
HIDDEN
 62
   179
370
    18
100
AcDbLine
 10
4.3708404255
 20
0.5099901575
 30
0.0
 11
4.2133601105
 21
0.3525098425
 31
0.0
  0
LINE
  5
1B5
330
14D
100
AcDbEntity
  8
0
  6
HIDDEN
 62
   179
370
    18
100
AcDbLine
 10
4.2133601105
 20
0.3525098425
 30
0.0
 11
4.292100268
 21
0.0
 31
0.0
  0
HATCH
  5
1B6
330
14D
100
AcDbEntity
  8
0
  6
Continuous
 62
     7
100
AcDbHatch
 10
0.0
 20
0.0
 30
0.0
210
0.0
220
0.0
230
1.0
  2
SOLID
 70
     1
 71
     0
 91
        1
 92
        0
 93
        3
 72
     1
 10
0.1300000000000033
 20
2.116373286991132
 11
0.1300000000000033
 21
2.156373286991132
 72
     1
 10
0.1300000000000033
 20
2.156373286991132
 11
0.0000000000000033
 21
2.136373286991131
 72
     1
 10
0.0000000000000033
 20
2.136373286991131
 11
0.1300000000000033
 21
2.116373286991132
 97
        0
 75
     0
 76
     1
 98
        1
 10
0.0
 20
0.0
  0
HATCH
  5
1B7
330
14D
100
AcDbEntity
  8
0
  6
Continuous
 62
     7
100
AcDbHatch
 10
0.0
 20
0.0
 30
0.0
210
0.0
220
0.0
230
1.0
  2
SOLID
 70
     1
 71
     0
 91
        1
 92
        0
 93
        3
 72
     1
 10
8.188825316238882
 20
2.156373286991132
 11
8.188825316238882
 21
2.116373286991132
 72
     1
 10
8.188825316238882
 20
2.116373286991132
 11
8.31882531623888
 21
2.136373286991131
 72
     1
 10
8.31882531623888
 20
2.136373286991131
 11
8.188825316238882
 21
2.156373286991132
 97
        0
 75
     0
 76
     1
 98
        1
 10
0.0
 20
0.0
  0
HATCH
  5
1B8
330
14D
100
AcDbEntity
  8
0
  6
Continuous
 62
     7
100
AcDbHatch
 10
0.0
 20
0.0
 30
0.0
210
0.0
220
0.0
230
1.0
  2
SOLID
 70
     1
 71
     0
 91
        1
 92
        0
 93
        3
 72
     1
 10
8.692620129683883
 20
1.470000000000458
 11
8.732620129683884
 21
1.470000000000458
 72
     1
 10
8.732620129683884
 20
1.470000000000458
 11
8.712620129683884
 21
1.600000000000457
 72
     1
 10
8.712620129683884
 20
1.600000000000457
 11
8.692620129683883
 21
1.470000000000458
 97
        0
 75
     0
 76
     1
 98
        1
 10
0.0
 20
0.0
  0
HATCH
  5
1B9
330
14D
100
AcDbEntity
  8
0
  6
Continuous
 62
     7
100
AcDbHatch
 10
0.0
 20
0.0
 30
0.0
210
0.0
220
0.0
230
1.0
  2
SOLID
 70
     1
 71
     0
 91
        1
 92
        0
 93
        3
 72
     1
 10
8.732620129683884
 20
0.2550000000000004
 11
8.692620129683883
 21
0.2550000000000004
 72
     1
 10
8.692620129683883
 20
0.2550000000000004
 11
8.712620129683884
 21
0.1249999999999993
 72
     1
 10
8.712620129683884
 20
0.1249999999999993
 11
8.732620129683884
 21
0.2550000000000004
 97
        0
 75
     0
 76
     1
 98
        1
 10
0.0
 20
0.0
  0
MTEXT
  5
1BA
330
14D
100
AcDbEntity
  8
0
  6
Continuous
 62
     7
370
    18
100
AcDbMText
 10
3.0815845676
 20
2.4186910086
 30
0.0
 40
0.1666666667
 41
0.0
 71
     1
 72
     1
  1
LENGTHS UP TO 20'
  7
SLDTEXTSTYLE1
 73
     1
 44
1.0
  0
MTEXT
  5
1BC
330
14D
100
AcDbEntity
  8
0
  6
Continuous
 62
     7
370
    18
100
AcDbMText
 10
8.7783424
 20
0.8959089108
 30
0.0
 40
0.1377952756
 41
0.0
 71
     1
 72
     1
  1
1 - 1/2"
  7
SLDTEXTSTYLE3
 73
     1
 44
1.0
  0
ENDBLK
  5
14F
330
14D
100
AcDbEntity
  8
0
100
AcDbBlockEnd
  0
BLOCK
  5
1BE
330
1BD
100
AcDbEntity
  8
0
100
AcDbBlockBegin
  2
Block14_
 70
     0
 10
0.0
 20
0.0
 30
0.0
  3
Block14_
  1

  0
ARC
  5
1C0
330
1BD
100
AcDbEntity
  8
0
  6
Continuous
 62
   179
370
    25
100
AcDbCircle
 10
8.3092934552
 20
0.7374999975
 30
0.0
 40
0.0049444913046965
100
AcDbArc
 50
137.7279271661
 51
222.2720728339
  0
ARC
  5
1C1
330
1BD
100
AcDbEntity
  8
0
  6
Continuous
 62
   179
370
    25
100
AcDbCircle
 10
0.0197667998
 20
0.7374999975
 30
0.0
 40
0.0049459108127662
100
AcDbArc
 50
137.7428738701
 51
222.2571261299
  0
LINE
  5
1C2
330
1BD
100
AcDbEntity
  8
0
  6
Continuous
 62
   179
370
    25
100
AcDbLine
 10
4.2853401636
 20
0.3798999585
 30
0.0
 11
8.6183602415
 21
0.3798999585
 31
0.0
  0
LINE
  5
1C3
330
1BD
100
AcDbEntity
  8
0
  6
Continuous
 62
   179
370
    25
100
AcDbLine
 10
8.6183191753
 20
0.1700795091
 30
0.0
 11
4.2853401636
 21
0.1700795091
 31
0.0
  0
LINE
  5
1C4
330
1BD
100
AcDbEntity
  8
0
  6
Continuous
 62
   179
370
    25
100
AcDbLine
 10
8.660759325
 20
0.4050000002
 30
0.0
 11
4.2853401636
 21
0.4050000002
 31
0.0
  0
LINE
  5
1C5
330
1BD
100
AcDbEntity
  8
0
  6
Continuous
 62
   179
370
    25
100
AcDbLine
 10
8.6572241125
 20
0.3999999988
 30
0.0
 11
4.2853401636
 21
0.3999999988
 31
0.0
  0
LINE
  5
1C6
330
1BD
100
AcDbEntity
  8
0
  6
Continuous
 62
   179
370
    25
100
AcDbLine
 10
8.6572241125
 20
0.4250000013
 30
0.0
 11
4.2853401636
 21
0.4250000013
 31
0.0
  0
LINE
  5
1C7
330
1BD
100
AcDbEntity
  8
0
  6
Continuous
 62
   179
370
    25
100
AcDbLine
 10
8.660759325
 20
0.4199999999
 30
0.0
 11
4.2853401636
 21
0.4199999999
 31
0.0
  0
LINE
  5
1C8
330
1BD
100
AcDbEntity
  8
0
  6
Continuous
 62
   179
370
    25
100
AcDbLine
 10
8.660759325
 20
0.1449999821
 30
0.0
 11
4.2853401636
 21
0.1449999821
 31
0.0
  0
LINE
  5
1C9
330
1BD
100
AcDbEntity
  8
0
  6
Continuous
 62
   179
370
    25
100
AcDbLine
 10
8.660759325
 20
0.1449999821
 30
0.0
 11
8.660759325
 21
0.1300000054
 31
0.0
  0
LINE
  5
1CA
330
1BD
100
AcDbEntity
  8
0
  6
Continuous
 62
   179
370
    25
100
AcDbLine
 10
8.660759325
 20
0.1300000054
 30
0.0
 11
4.2853401636
 21
0.1300000054
 31
0.0
  0
LINE
  5
1CB
330
1BD
100
AcDbEntity
  8
0
  6
Continuous
 62
   179
370
    25
100
AcDbLine
 10
8.660759325
 20
0.4199999999
 30
0.0
 11
8.660759325
 21
0.4050000002
 31
0.0
  0
LINE
  5
1CC
330
1BD
100
AcDbEntity
  8
0
  6
Continuous
 62
   179
370
    25
100
AcDbLine
 10
8.6572241125
 20
0.1250000132
 30
0.0
 11
4.2853401636
 21
0.1250000132
 31
0.0
  0
LINE
  5
1CD
330
1BD
100
AcDbEntity
  8
0
  6
Continuous
 62
   179
370
    25
100
AcDbLine
 10
8.6572241125
 20
0.150000011
 30
0.0
 11
4.2853401636
 21
0.150000011
 31
0.0
  0
LINE
  5
1CE
330
1BD
100
AcDbEntity
  8
0
  6
Continuous
 62
   179
370
    25
100
AcDbLine
 10
8.6320288302
 20
0.1554451315
 30
0.0
 11
4.2853401636
 21
0.1554451315
 31
0.0
  0
LINE
  5
1CF
330
1BD
100
AcDbEntity
  8
0
  6
Continuous
 62
   179
370
    25
100
AcDbLine
 10
8.6348653308
 20
0.3993090785
 30
0.0
 11
4.2853401636
 21
0.3993090785
 31
0.0
  0
LINE
  5
1D0
330
1BD
100
AcDbEntity
  8
0
  6
Continuous
 62
   179
370
    25
100
AcDbLine
 10
8.6320669631
 20
0.394589473
 30
0.0
 11
4.2853401636
 21
0.394589473
 31
0.0
  0
LINE
  5
1D1
330
1BD
100
AcDbEntity
  8
0
  6
Continuous
 62
   179
370
    25
100
AcDbLine
 10
8.3072058093
 20
0.4299999981
 30
0.0
 11
4.2853401636
 21
0.4299999981
 31
0.0
  0
LINE
  5
1D2
330
1BD
100
AcDbEntity
  8
0
  6
Continuous
 62
   179
370
    25
100
AcDbLine
 10
8.3072058093
 20
0.7449833211
 30
0.0
 11
4.2853401636
 21
0.7449833211
 31
0.0
  0
LINE
  5
1D3
330
1BD
100
AcDbEntity
  8
0
  6
Continuous
 62
   179
370
    25
100
AcDbLine
 10
8.3056347341
 20
0.7408259191
 30
0.0
 11
4.2853401636
 21
0.7408259191
 31
0.0
  0
LINE
  5
1D4
330
1BD
100
AcDbEntity
  8
0
  6
Continuous
 62
   179
370
    25
100
AcDbLine
 10
8.3036705968
 20
0.8624999868
 30
0.0
 11
4.2853401636
 21
0.8624999868
 31
0.0
  0
LINE
  5
1D5
330
1BD
100
AcDbEntity
  8
0
  6
Continuous
 62
   179
370
    25
100
AcDbLine
 10
8.3072058093
 20
0.8574999946
 30
0.0
 11
4.2853401636
 21
0.8574999946
 31
0.0
  0
LINE
  5
1D6
330
1BD
100
AcDbEntity
  8
0
  6
Continuous
 62
   179
370
    25
100
AcDbLine
 10
8.3056347341
 20
0.7341740759
 30
0.0
 11
4.2853401636
 21
0.7341740759
 31
0.0
  0
LINE
  5
1D7
330
1BD
100
AcDbEntity
  8
0
  6
Continuous
 62
   179
370
    25
100
AcDbLine
 10
8.3072058093
 20
0.7300166923
 30
0.0
 11
4.2853401636
 21
0.7300166923
 31
0.0
  0
LINE
  5
1D8
330
1BD
100
AcDbEntity
  8
0
  6
Continuous
 62
   179
370
    25
100
AcDbLine
 10
8.3072058093
 20
0.8574999946
 30
0.0
 11
8.3072058093
 21
0.7449833211
 31
0.0
  0
LINE
  5
1D9
330
1BD
100
AcDbEntity
  8
0
  6
Continuous
 62
   179
370
    25
100
AcDbLine
 10
8.3072058093
 20
0.3798999585
 30
0.0
 11
8.3072058093
 21
0.1700795091
 31
0.0
  0
LINE
  5
1DA
330
1BD
100
AcDbEntity
  8
0
  6
Continuous
 62
   179
370
    25
100
AcDbLine
 10
8.3072058093
 20
0.7300166923
 30
0.0
 11
8.3072058093
 21
0.4299999981
 31
0.0
  0
LINE
  5
1DB
330
1BD
100
AcDbEntity
  8
0
  6
Continuous
 62
   179
370
    25
100
AcDbLine
 10
0.3288322546
 20
0.3798999585
 30
0.0
 11
4.2850401722
 21
0.3798999585
 31
0.0
  0
LINE
  5
1DC
330
1BD
100
AcDbEntity
  8
0
  6
Continuous
 62
   179
370
    25
100
AcDbLine
 10
4.2850401722
 20
0.1700795091
 30
0.0
 11
0.3287906018
 21
0.1700795091
 31
0.0
  0
LINE
  5
1DD
330
1BD
100
AcDbEntity
  8
0
  6
Continuous
 62
   179
370
    25
100
AcDbLine
 10
0.0212130349
 20
0.3999999988
 30
0.0
 11
0.3100344985
 21
0.3999999988
 31
0.0
  0
LINE
  5
1DE
330
1BD
100
AcDbEntity
  8
0
  6
Continuous
 62
   179
370
    25
100
AcDbLine
 10
0.0176778225
 20
0.3949999974
 30
0.0
 11
0.0176778225
 21
0.1550000033
 31
0.0
  0
LINE
  5
1DF
330
1BD
100
AcDbEntity
  8
0
  6
Continuous
 62
   179
370
    25
100
AcDbLine
 10
0.0212130349
 20
0.150000011
 30
0.0
 11
0.3099946056
 21
0.150000011
 31
0.0
  0
LINE
  5
1E0
330
1BD
100
AcDbEntity
  8
0
  6
Continuous
 62
   179
370
    25
100
AcDbLine
 10
0.367695539
 20
0.150000011
 30
0.0
 11
0.3476012645
 21
0.150000011
 31
0.0
  0
LINE
  5
1E1
330
1BD
100
AcDbEntity
  8
0
  6
Continuous
 62
   179
370
    25
100
AcDbLine
 10
0.3712307515
 20
0.1449999821
 30
0.0
 11
0.3712307515
 21
0.1300000054
 31
0.0
  0
LINE
  5
1E2
330
1BD
100
AcDbEntity
  8
0
  6
Continuous
 62
   179
370
    25
100
AcDbLine
 10
0.367695539
 20
0.1250000132
 30
0.0
 11
0.0053034054
 21
0.1250000132
 31
0.0
  0
LINE
  5
1E3
330
1BD
100
AcDbEntity
  8
0
  6
Continuous
 62
   179
370
    25
100
AcDbLine
 10
0.0
 20
0.1324999832
 30
0.0
 11
0.0
 21
0.8574999946
 31
0.0
  0
LINE
  5
1E4
330
1BD
100
AcDbEntity
  8
0
  6
Continuous
 62
   179
370
    25
100
AcDbLine
 10
0.0035352125
 20
0.8624999868
 30
0.0
 11
0.0141420233
 21
0.8624999868
 31
0.0
  0
LINE
  5
1E5
330
1BD
100
AcDbEntity
  8
0
  6
Continuous
 62
   179
370
    25
100
AcDbLine
 10
0.0176778225
 20
0.8574999946
 30
0.0
 11
0.0176778225
 21
0.7449833211
 31
0.0
  0
LINE
  5
1E6
330
1BD
100
AcDbEntity
  8
0
  6
Continuous
 62
   179
370
    25
100
AcDbLine
 10
0.0176778225
 20
0.7300166923
 30
0.0
 11
0.0176778225
 21
0.4299999981
 31
0.0
  0
LINE
  5
1E7
330
1BD
100
AcDbEntity
  8
0
  6
Continuous
 62
   179
370
    25
100
AcDbLine
 10
0.0212130349
 20
0.4250000013
 30
0.0
 11
0.367695539
 21
0.4250000013
 31
0.0
  0
LINE
  5
1E8
330
1BD
100
AcDbEntity
  8
0
  6
Continuous
 62
   179
370
    25
100
AcDbLine
 10
0.3712307515
 20
0.4199999999
 30
0.0
 11
0.3712307515
 21
0.4050000002
 31
0.0
  0
LINE
  5
1E9
330
1BD
100
AcDbEntity
  8
0
  6
Continuous
 62
   179
370
    25
100
AcDbLine
 10
0.3475607849
 20
0.3999999988
 30
0.0
 11
0.3662734754
 21
0.3999999988
 31
0.0
  0
LINE
  5
1EA
330
1BD
100
AcDbEntity
  8
0
  6
Continuous
 62
   179
370
    25
100
AcDbLine
 10
4.2850401722
 20
0.4050000002
 30
0.0
 11
0.3712307515
 21
0.4050000002
 31
0.0
  0
LINE
  5
1EB
330
1BD
100
AcDbEntity
  8
0
  6
Continuous
 62
   179
370
    25
100
AcDbLine
 10
4.2850401722
 20
0.3999999988
 30
0.0
 11
0.367695539
 21
0.3999999988
 31
0.0
  0
LINE
  5
1EC
330
1BD
100
AcDbEntity
  8
0
  6
Continuous
 62
   179
370
    25
100
AcDbLine
 10
4.2850401722
 20
0.4250000013
 30
0.0
 11
0.367695539
 21
0.4250000013
 31
0.0
  0
LINE
  5
1ED
330
1BD
100
AcDbEntity
  8
0
  6
Continuous
 62
   179
370
    25
100
AcDbLine
 10
4.2850401722
 20
0.4199999999
 30
0.0
 11
0.3712307515
 21
0.4199999999
 31
0.0
  0
LINE
  5
1EE
330
1BD
100
AcDbEntity
  8
0
  6
Continuous
 62
   179
370
    25
100
AcDbLine
 10
4.2850401722
 20
0.1449999821
 30
0.0
 11
0.3712307515
 21
0.1449999821
 31
0.0
  0
LINE
  5
1EF
330
1BD
100
AcDbEntity
  8
0
  6
Continuous
 62
   179
370
    25
100
AcDbLine
 10
4.2850401722
 20
0.1300000054
 30
0.0
 11
0.3712307515
 21
0.1300000054
 31
0.0
  0
LINE
  5
1F0
330
1BD
100
AcDbEntity
  8
0
  6
Continuous
 62
   179
370
    25
100
AcDbLine
 10
4.2850401722
 20
0.1250000132
 30
0.0
 11
0.367695539
 21
0.1250000132
 31
0.0
  0
LINE
  5
1F1
330
1BD
100
AcDbEntity
  8
0
  6
Continuous
 62
   179
370
    25
100
AcDbLine
 10
4.2850401722
 20
0.150000011
 30
0.0
 11
0.367695539
 21
0.150000011
 31
0.0
  0
LINE
  5
1F2
330
1BD
100
AcDbEntity
  8
0
  6
Continuous
 62
   179
370
    25
100
AcDbLine
 10
4.2850401722
 20
0.1554451315
 30
0.0
 11
0.3425008434
 21
0.1554451315
 31
0.0
  0
LINE
  5
1F3
330
1BD
100
AcDbEntity
  8
0
  6
Continuous
 62
   179
370
    25
100
AcDbLine
 10
4.2850401722
 20
0.3993090785
 30
0.0
 11
0.3453367573
 21
0.3993090785
 31
0.0
  0
LINE
  5
1F4
330
1BD
100
AcDbEntity
  8
0
  6
Continuous
 62
   179
370
    25
100
AcDbLine
 10
0.367695539
 20
0.3999999988
 30
0.0
 11
0.366282862
 21
0.3999999988
 31
0.0
  0
LINE
  5
1F5
330
1BD
100
AcDbEntity
  8
0
  6
Continuous
 62
   179
370
    25
100
AcDbLine
 10
4.2850401722
 20
0.394589473
 30
0.0
 11
0.3425383896
 21
0.394589473
 31
0.0
  0
LINE
  5
1F6
330
1BD
100
AcDbEntity
  8
0
  6
Continuous
 62
   179
370
    25
100
AcDbLine
 10
4.2850401722
 20
0.4299999981
 30
0.0
 11
0.0176778225
 21
0.4299999981
 31
0.0
  0
LINE
  5
1F7
330
1BD
100
AcDbEntity
  8
0
  6
Continuous
 62
   179
370
    25
100
AcDbLine
 10
4.2850401722
 20
0.7449833211
 30
0.0
 11
0.0176778225
 21
0.7449833211
 31
0.0
  0
LINE
  5
1F8
330
1BD
100
AcDbEntity
  8
0
  6
Continuous
 62
   179
370
    25
100
AcDbLine
 10
4.2850401722
 20
0.7408259191
 30
0.0
 11
0.0161061606
 21
0.7408259191
 31
0.0
  0
LINE
  5
1F9
330
1BD
100
AcDbEntity
  8
0
  6
Continuous
 62
   179
370
    25
100
AcDbLine
 10
4.2850401722
 20
0.8624999868
 30
0.0
 11
0.0141420233
 21
0.8624999868
 31
0.0
  0
LINE
  5
1FA
330
1BD
100
AcDbEntity
  8
0
  6
Continuous
 62
   179
370
    25
100
AcDbLine
 10
4.2850401722
 20
0.8574999946
 30
0.0
 11
0.0176778225
 21
0.8574999946
 31
0.0
  0
LINE
  5
1FB
330
1BD
100
AcDbEntity
  8
0
  6
Continuous
 62
   179
370
    25
100
AcDbLine
 10
4.2850401722
 20
0.7341740759
 30
0.0
 11
0.0161061606
 21
0.7341740759
 31
0.0
  0
LINE
  5
1FC
330
1BD
100
AcDbEntity
  8
0
  6
Continuous
 62
   179
370
    25
100
AcDbLine
 10
4.2850401722
 20
0.7300166923
 30
0.0
 11
0.0176778225
 21
0.7300166923
 31
0.0
  0
LINE
  5
1FD
330
1BD
100
AcDbEntity
  8
0
  6
Continuous
 62
     8
370
    25
100
AcDbLine
 10
0.3149383885
 20
0.1550000033
 30
0.0
 11
0.0176778225
 21
0.1550000033
 31
0.0
  0
LINE
  5
1FE
330
1BD
100
AcDbEntity
  8
0
  6
Continuous
 62
     8
370
    25
100
AcDbLine
 10
0.3150035077
 20
0.3949999974
 30
0.0
 11
0.0176778225
 21
0.3949999974
 31
0.0
  0
SPLINE
  5
1FF
330
1BD
100
AcDbEntity
  8
0
  6
Continuous
 62
   179
370
    25
100
AcDbSpline
210
0.0
220
0.0
230
1.0
 70
     8
 71
     3
 72
    11
 73
     7
 74
     0
 42
0.000000001
 43
0.00000001
 40
0.0
 40
0.0
 40
0.0
 40
0.0
 40
0.239045384535204
 40
0.5039075110336846
 40
0.7402130957665646
 40
1.0
 40
1.0
 40
1.0
 40
1.0
 10
8.657224112525142
 20
0.3999999988414611
 30
0.0
 10
8.657762421711974
 20
0.4001097878203469
 30
0.0
 10
8.658897177118488
 20
0.4003412229145527
 30
0.0
 10
8.659986789445536
 20
0.4017222318553164
 30
0.0
 10
8.660641890826758
 20
0.4033008367601024
 30
0.0
 10
8.660718964261278
 20
0.4044160176359126
 30
0.0
 10
8.660759325019399
 20
0.4050000002476848
 30
0.0
  0
SPLINE
  5
200
330
1BD
100
AcDbEntity
  8
0
  6
Continuous
 62
   179
370
    25
100
AcDbSpline
210
0.0
220
0.0
230
1.0
 70
     8
 71
     3
 72
    11
 73
     7
 74
     0
 42
0.000000001
 43
0.00000001
 40
0.0
 40
0.0
 40
0.0
 40
0.0
 40
0.3257390582408459
 40
0.6127672005778098
 40
0.8122934022970412
 40
1.0
 40
1.0
 40
1.0
 40
1.0
 10
8.660759325019399
 20
0.4199999998830757
 30
0.0
 10
8.660696341535852
 20
0.4207337193511288
 30
0.0
 10
8.660577859542617
 20
0.4221139628714385
 30
0.0
 10
8.659686218275256
 20
0.4237456745907698
 30
0.0
 10
8.658520690736664
 20
0.4247996238252927
 30
0.0
 10
8.657647420244107
 20
0.4249345819212528
 30
0.0
 10
8.657224112525142
 20
0.4250000012892989
 30
0.0
  0
SPLINE
  5
201
330
1BD
100
AcDbEntity
  8
0
  6
Continuous
 62
   179
370
    25
100
AcDbSpline
210
0.0
220
0.0
230
1.0
 70
     8
 71
     3
 72
    11
 73
     7
 74
     0
 42
0.000000001
 43
0.00000001
 40
0.0
 40
0.0
 40
0.0
 40
0.0
 40
0.2390443436412318
 40
0.503905227834732
 40
0.7402106079163103
 40
1.0
 40
1.0
 40
1.0
 40
1.0
 10
8.657224112525142
 20
0.1250000131647623
 30
0.0
 10
8.657762421631197
 20
0.1251097951951468
 30
0.0
 10
8.65889717666702
 20
0.1253412156010457
 30
0.0
 10
8.659986791510159
 20
0.1267222206130967
 30
0.0
 10
8.660641892903143
 20
0.1283008293020594
 30
0.0
 10
8.660718964843149
 20
0.1294160165506361
 30
0.0
 10
8.660759325019399
 20
0.1300000054044252
 30
0.0
  0
SPLINE
  5
202
330
1BD
100
AcDbEntity
  8
0
  6
Continuous
 62
   179
370
    25
100
AcDbSpline
210
0.0
220
0.0
230
1.0
 70
     8
 71
     3
 72
    11
 73
     7
 74
     0
 42
0.000000001
 43
0.00000001
 40
0.0
 40
0.0
 40
0.0
 40
0.0
 40
0.3257416124285504
 40
0.612767241095002
 40
0.8122933743257158
 40
1.0
 40
1.0
 40
1.0
 40
1.0
 10
8.660759325019399
 20
0.1449999821234136
 30
0.0
 10
8.660696343744648
 20
0.1457337100066977
 30
0.0
 10
8.660577866827678
 20
0.1471139586258477
 30
0.0
 10
8.659686212717721
 20
0.1487456690918661
 30
0.0
 10
8.658520690679797
 20
0.1497996174232543
 30
0.0
 10
8.65764742029786
 20
0.1499345863800263
 30
0.0
 10
8.657224112525142
 20
0.1500000110293197
 30
0.0
  0
SPLINE
  5
203
330
1BD
100
AcDbEntity
  8
0
  6
Continuous
 62
   179
370
    25
100
AcDbSpline
210
0.0
220
0.0
230
1.0
 70
     8
 71
     3
 72
    11
 73
     7
 74
     0
 42
0.000000001
 43
0.00000001
 40
0.0
 40
0.0
 40
0.0
 40
0.0
 40
0.2445770590858656
 40
0.5092242312953277
 40
0.742395743998368
 40
1.0
 40
1.0
 40
1.0
 40
1.0
 10
8.63712925132936
 20
0.1500000110293197
 30
0.0
 10
8.636470723515489
 20
0.1501066572620383
 30
0.0
 10
8.635099628773169
 20
0.1503287011695062
 30
0.0
 10
8.633595727572121
 20
0.1517645523570292
 30
0.0
 10
8.632540481971063
 20
0.1534987266539103
 30
0.0
 10
8.632204948874918
 20
0.1547751481021864
 30
0.0
 10
8.63202883024986
 20
0.1554451314601577
 30
0.0
  0
SPLINE
  5
204
330
1BD
100
AcDbEntity
  8
0
  6
Continuous
 62
   179
370
    25
100
AcDbSpline
210
0.0
220
0.0
230
1.0
 70
     8
 71
     3
 72
     9
 73
     5
 74
     0
 42
0.000000001
 43
0.00000001
 40
0.0
 40
0.0
 40
0.0
 40
0.0
 40
0.5639652957067016
 40
1.0
 40
1.0
 40
1.0
 40
1.0
 10
8.634865330815696
 20
0.3993090784896986
 30
0.0
 10
8.63525741265091
 20
0.3995282361401249
 30
0.0
 10
8.635952635988586
 20
0.3999168374460834
 30
0.0
 10
8.63674379779338
 20
0.3999747478817635
 30
0.0
 10
8.637088771796984
 20
0.3999999988414611
 30
0.0
  0
SPLINE
  5
205
330
1BD
100
AcDbEntity
  8
0
  6
Continuous
 62
   179
370
    25
100
AcDbSpline
210
0.0
220
0.0
230
1.0
 70
     8
 71
     3
 72
     9
 73
     5
 74
     0
 42
0.000000001
 43
0.00000001
 40
0.0
 40
0.0
 40
0.0
 40
0.0
 40
0.5961592900218182
 40
1.0
 40
1.0
 40
1.0
 40
1.0
 10
8.632066963142679
 20
0.3945894730109838
 30
0.0
 10
8.63237164173102
 20
0.3956894931794697
 30
0.0
 10
8.632882710825205
 20
0.3975346714512796
 30
0.0
 10
8.634294993555287
 20
0.3987986375307693
 30
0.0
 10
8.634865330815696
 20
0.3993090784896986
 30
0.0
  0
SPLINE
  5
206
330
1BD
100
AcDbEntity
  8
0
  6
Continuous
 62
   179
370
    25
100
AcDbSpline
210
0.0
220
0.0
230
1.0
 70
     8
 71
     3
 72
    11
 73
     7
 74
     0
 42
0.000000001
 43
0.00000001
 40
0.0
 40
0.0
 40
0.0
 40
0.0
 40
0.0816779105996727
 40
0.3471222512830208
 40
0.6487661705718176
 40
1.0
 40
1.0
 40
1.0
 40
1.0
 10
8.618379014600361
 20
0.3802444653924031
 30
0.0
 10
8.618965726291508
 20
0.3801474665928453
 30
0.0
 10
8.621459187272452
 20
0.3797352322270667
 30
0.0
 10
8.625817125174926
 20
0.3824661491793797
 30
0.0
 10
8.630089810704934
 20
0.3875328635261623
 30
0.0
 10
8.631375363884999
 20
0.3921211019394029
 30
0.0
 10
8.632066963142679
 20
0.3945894730109838
 30
0.0
  0
SPLINE
  5
207
330
1BD
100
AcDbEntity
  8
0
  6
Continuous
 62
   179
370
    25
100
AcDbSpline
210
0.0
220
0.0
230
1.0
 70
     8
 71
     3
 72
    12
 73
     8
 74
     0
 42
0.000000001
 43
0.00000001
 40
0.0
 40
0.0
 40
0.0
 40
0.0
 40
0.2290122033140311
 40
0.4406440413623336
 40
0.6353620037100506
 40
0.8166337826293293
 40
1.0
 40
1.0
 40
1.0
 40
1.0
 10
8.63202883024986
 20
0.1554451314601577
 30
0.0
 10
8.631618686958726
 20
0.1570436354401054
 30
0.0
 10
8.630829527277593
 20
0.1601193285414558
 30
0.0
 10
8.628606036867538
 20
0.1641818335908213
 30
0.0
 10
8.625771668180871
 20
0.1673129731286656
 30
0.0
 10
8.622322882345312
 20
0.1696855402227411
 30
0.0
 10
8.619645963096742
 20
0.1697213978632277
 30
0.0
 10
8.618299815515277
 20
0.1697394296645384
 30
0.0
  0
SPLINE
  5
208
330
1BD
100
AcDbEntity
  8
0
  6
Continuous
 62
   179
370
    25
100
AcDbSpline
210
0.0
220
0.0
230
1.0
 70
     8
 71
     3
 72
    11
 73
     7
 74
     0
 42
0.000000001
 43
0.00000001
 40
0.0
 40
0.0
 40
0.0
 40
0.0
 40
0.2390312202354139
 40
0.5039371518556983
 40
0.7402289407007044
 40
1.0
 40
1.0
 40
1.0
 40
1.0
 10
8.31074160845393
 20
0.4250000012892989
 30
0.0
 10
8.310203334574389
 20
0.4251098230514693
 30
0.0
 10
8.309068519609605
 20
0.4253413545894231
 30
0.0
 10
8.307978305358947
 20
0.4267220273605525
 30
0.0
 10
8.307323268164712
 20
0.4283008601196553
 30
0.0
 10
8.307246178504533
 20
0.4294160247394117
 30
0.0
 10
8.307205809299782
 20
0.4299999981122428
 30
0.0
  0
SPLINE
  5
209
330
1BD
100
AcDbEntity
  8
0
  6
Continuous
 62
   179
370
    25
100
AcDbSpline
210
0.0
220
0.0
230
1.0
 70
     8
 71
     3
 72
    10
 73
     6
 74
     0
 42
0.000000001
 43
0.00000001
 40
0.0
 40
0.0
 40
0.0
 40
0.0
 40
0.2573593627378929
 40
0.533641683022478
 40
0.9999999999999999
 40
0.9999999999999999
 40
0.9999999999999999
 40
0.9999999999999999
 10
8.305634734115644
 20
0.7408259190913471
 30
0.0
 10
8.305893444692247
 20
0.7411201515143815
 30
0.0
 10
8.306429888154204
 20
0.7417302504972115
 30
0.0
 10
8.307047706229888
 20
0.7431457995938566
 30
0.0
 10
8.307144822744478
 20
0.7442745169606446
 30
0.0
 10
8.307205809299782
 20
0.7449833210646842
 30
0.0
  0
SPLINE
  5
20A
330
1BD
100
AcDbEntity
  8
0
  6
Continuous
 62
   179
370
    25
100
AcDbSpline
210
0.0
220
0.0
230
1.0
 70
     8
 71
     3
 72
    11
 73
     7
 74
     0
 42
0.000000001
 43
0.00000001
 40
0.0
 40
0.0
 40
0.0
 40
0.0
 40
0.3257420456762922
 40
0.6127680560968726
 40
0.8122944547043247
 40
1.0
 40
1.0
 40
1.0
 40
1.0
 10
8.307205809299782
 20
0.8574999945958035
 30
0.0
 10
8.30714282814928
 20
0.8582337229588771
 30
0.0
 10
8.307024351466035
 20
0.8596139724805816
 30
0.0
 10
8.306132695917395
 20
0.861245677391009
 30
0.0
 10
8.304967179904988
 20
0.862299638033275
 30
0.0
 10
8.3040939051517
 20
0.8624345769746186
 30
0.0
 10
8.303670596805526
 20
0.8624999868354659
 30
0.0
  0
SPLINE
  5
20B
330
1BD
100
AcDbEntity
  8
0
  6
Continuous
 62
   179
370
    25
100
AcDbSpline
210
0.0
220
0.0
230
1.0
 70
     8
 71
     3
 72
    10
 73
     6
 74
     0
 42
0.000000001
 43
0.00000001
 40
0.0
 40
0.0
 40
0.0
 40
0.0
 40
0.3018163544227625
 40
0.588487411588803
 40
1.0
 40
1.0
 40
1.0
 40
1.0
 10
8.307205809299782
 20
0.7300166922937902
 30
0.0
 10
8.30717870521352
 20
0.7304734951497571
 30
0.0
 10
8.307125857137747
 20
0.7313641782634297
 30
0.0
 10
8.30669344656538
 20
0.7328450706888678
 30
0.0
 10
8.3060273402066
 20
0.7336812362075226
 30
0.0
 10
8.305634734115644
 20
0.7341740759340057
 30
0.0
  0
SPLINE
  5
20C
330
1BD
100
AcDbEntity
  8
0
  6
Continuous
 62
   179
370
    25
100
AcDbSpline
210
0.0
220
0.0
230
1.0
 70
     8
 71
     3
 72
     9
 73
     5
 74
     0
 42
0.000000001
 43
0.00000001
 40
0.0
 40
0.0
 40
0.0
 40
0.0
 40
0.5961592900218182
 40
1.0
 40
1.0
 40
1.0
 40
1.0
 10
0.3425383896339597
 20
0.3945894730109838
 30
0.0
 10
0.3428430682223015
 20
0.3956894931794697
 30
0.0
 10
0.3433541373164863
 20
0.3975346714512796
 30
0.0
 10
0.3447664200465704
 20
0.3987986375307693
 30
0.0
 10
0.3453367573069775
 20
0.3993090784896986
 30
0.0
  0
SPLINE
  5
20D
330
1BD
100
AcDbEntity
  8
0
  6
Continuous
 62
   179
370
    25
100
AcDbSpline
210
0.0
220
0.0
230
1.0
 70
     8
 71
     3
 72
    15
 73
    11
 74
     0
 42
0.000000001
 43
0.00000001
 40
0.0
 40
0.0
 40
0.0
 40
0.0
 40
0.115062016964737
 40
0.2213388811814902
 40
0.3190933205876942
 40
0.4100620473446754
 40
0.541458473004024
 40
0.6740015694995738
 40
0.8246200343674478
 40
1.0
 40
1.0
 40
1.0
 40
1.0
 10
0.3151102798191581
 20
0.3945894730109838
 30
0.0
 10
0.315520331894327
 20
0.3929792113440463
 30
0.0
 10
0.3163091279708957
 20
0.389881633836096
 30
0.0
 10
0.3185420501232035
 20
0.3858106316699271
 30
0.0
 10
0.3213931590633153
 20
0.3826065855190116
 30
0.0
 10
0.3253572869307896
 20
0.3801243688295495
 30
0.0
 10
0.3307349983318145
 20
0.3794962096325172
 30
0.0
 10
0.3362813716831685
 20
0.3823048802228897
 30
0.0
 10
0.3405634912006853
 20
0.3875834905188638
 30
0.0
 10
0.3418475788171669
 20
0.3921388110395723
 30
0.0
 10
0.3425383896339597
 20
0.3945894730109838
 30
0.0
  0
SPLINE
  5
20E
330
1BD
100
AcDbEntity
  8
0
  6
Continuous
 62
   179
370
    25
100
AcDbSpline
210
0.0
220
0.0
230
1.0
 70
     8
 71
     3
 72
     9
 73
     5
 74
     0
 42
0.000000001
 43
0.00000001
 40
0.0
 40
0.0
 40
0.0
 40
0.0
 40
0.545123889212761
 40
1.0
 40
1.0
 40
1.0
 40
1.0
 10
0.3142883693139384
 20
0.3969806528878698
 30
0.0
 10
0.3144818997854774
 20
0.3965610329412135
 30
0.0
 10
0.314836920864846
 20
0.3957912630687845
 30
0.0
 10
0.3150248124332665
 20
0.3949652201852085
 30
0.0
 10
0.3151102798191581
 20
0.3945894730109838
 30
0.0
  0
SPLINE
  5
20F
330
1BD
100
AcDbEntity
  8
0
  6
Continuous
 62
   179
370
    25
100
AcDbSpline
210
0.0
220
0.0
230
1.0
 70
     8
 71
     3
 72
    10
 73
     6
 74
     0
 42
0.000000001
 43
0.00000001
 40
0.0
 40
0.0
 40
0.0
 40
0.0
 40
0.2600204757046396
 40
0.5296669359267333
 40
1.0
 40
1.0
 40
1.0
 40
1.0
 10
0.3100344984550176
 20
0.3999999988414611
 30
0.0
 10
0.3105084338751085
 20
0.3999456419616791
 30
0.0
 10
0.311473849852853
 20
0.3998349159048824
 30
0.0
 10
0.3130733496888934
 20
0.3988447540149025
 30
0.0
 10
0.3138162070736636
 20
0.3977050511988894
 30
0.0
 10
0.3142883693139384
 20
0.3969806528878698
 30
0.0
  0
SPLINE
  5
210
330
1BD
100
AcDbEntity
  8
0
  6
Continuous
 62
   179
370
    25
100
AcDbSpline
210
0.0
220
0.0
230
1.0
 70
     8
 71
     3
 72
    11
 73
     7
 74
     0
 42
0.000000001
 43
0.00000001
 40
0.0
 40
0.0
 40
0.0
 40
0.0
 40
0.3257396210689084
 40
0.6127670673152279
 40
0.8122936327558012
 40
1.0
 40
1.0
 40
1.0
 40
1.0
 10
0.0176778224509532
 20
0.3949999974352378
 30
0.0
 10
0.0177408052158818
 20
0.3957337188955031
 30
0.0
 10
0.0178592856267993
 20
0.3971139634784542
 30
0.0
 10
0.0187509324986577
 20
0.3987456716581743
 30
0.0
 10
0.0199164544610936
 20
0.3997996275631663
 30
0.0
 10
0.0207897269324458
 20
0.3999345815621876
 30
0.0
 10
0.0212130349452101
 20
0.3999999988414611
 30
0.0
  0
SPLINE
  5
211
330
1BD
100
AcDbEntity
  8
0
  6
Continuous
 62
   179
370
    25
100
AcDbSpline
210
0.0
220
0.0
230
1.0
 70
     8
 71
     3
 72
    11
 73
     7
 74
     0
 42
0.000000001
 43
0.00000001
 40
0.0
 40
0.0
 40
0.0
 40
0.0
 40
0.2390392782653751
 40
0.5038986016506293
 40
0.7402270006023229
 40
1.0
 40
1.0
 40
1.0
 40
1.0
 10
0.0212130349452101
 20
0.1500000110293197
 30
0.0
 10
0.0206747053469963
 20
0.1501097850019809
 30
0.0
 10
0.0195398979892422
 20
0.150341190282834
 30
0.0
 10
0.0184505784184766
 20
0.1517223963610845
 30
0.0
 10
0.0177943533374497
 20
0.1533006453332692
 30
0.0
 10
0.0177178708743387
 20
0.1544159812286456
 30
0.0
 10
0.0176778224509532
 20
0.1550000032689832
 30
0.0
  0
SPLINE
  5
212
330
1BD
100
AcDbEntity
  8
0
  6
Continuous
 62
   179
370
    25
100
AcDbSpline
210
0.0
220
0.0
230
1.0
 70
     8
 71
     3
 72
    11
 73
     7
 74
     0
 42
0.000000001
 43
0.00000001
 40
0.0
 40
0.0
 40
0.0
 40
0.0
 40
0.3229127029758768
 40
0.6069304807980261
 40
0.8079423540249072
 40
1.0
 40
1.0
 40
1.0
 40
1.0
 10
0.315094440002141
 20
0.1554451314601577
 30
0.0
 10
0.314861621778338
 20
0.1546061273359587
 30
0.0
 10
0.3144240283507355
 20
0.1530291773683705
 30
0.0
 10
0.3130953945528024
 20
0.1512690509878123
 30
0.0
 10
0.3115691758581358
 20
0.150195133070294
 30
0.0
 10
0.3105114304345504
 20
0.1500640563891964
 30
0.0
 10
0.3099946055825301
 20
0.1500000110293197
 30
0.0
  0
SPLINE
  5
213
330
1BD
100
AcDbEntity
  8
0
  6
Continuous
 62
   179
370
    25
100
AcDbSpline
210
0.0
220
0.0
230
1.0
 70
     8
 71
     3
 72
    15
 73
    11
 74
     0
 42
0.000000001
 43
0.00000001
 40
0.0
 40
0.0
 40
0.0
 40
0.0
 40
0.1146628812416229
 40
0.2206134784902142
 40
0.3181115776021766
 40
0.4088684332617215
 40
0.5406223830421938
 40
0.6734168203349896
 40
0.8242759097953364
 40
1.0
 40
1.0
 40
1.0
 40
1.0
 10
0.3425008434010303
 20
0.1554451314601577
 30
0.0
 10
0.342090417926159
 20
0.15704487684175
 30
0.0
 10
0.3413007518137064
 20
0.1601228161845457
 30
0.0
 10
0.3390779466623681
 20
0.1641688472506018
 30
0.0
 10
0.3362439841048749
 20
0.1673572769681942
 30
0.0
 10
0.3322985762199158
 20
0.1698410340266943
 30
0.0
 10
0.3269317245439283
 20
0.1704914462010505
 30
0.0
 10
0.3213767560056094
 20
0.1677053084472431
 30
0.0
 10
0.3170831700719973
 20
0.1624416894812262
 30
0.0
 10
0.3157901651153348
 20
0.1578927643465686
 30
0.0
 10
0.315094440002141
 20
0.1554451314601577
 30
0.0
  0
SPLINE
  5
214
330
1BD
100
AcDbEntity
  8
0
  6
Continuous
 62
   179
370
    25
100
AcDbSpline
210
0.0
220
0.0
230
1.0
 70
     8
 71
     3
 72
    11
 73
     7
 74
     0
 42
0.000000001
 43
0.00000001
 40
0.0
 40
0.0
 40
0.0
 40
0.0
 40
0.244635944373988
 40
0.5092702375822706
 40
0.7424304030407438
 40
1.0
 40
1.0
 40
1.0
 40
1.0
 10
0.3476012644805307
 20
0.1500000110293197
 30
0.0
 10
0.346942523659981
 20
0.1501066187380037
 30
0.0
 10
0.3455711916791265
 20
0.1503285490568213
 30
0.0
 10
0.3440671922146449
 20
0.1517645676748632
 30
0.0
 10
0.3430118083266898
 20
0.1534986330389629
 30
0.0
 10
0.3426767209135709
 20
0.1547751338080868
 30
0.0
 10
0.3425008434010303
 20
0.1554451314601577
 30
0.0
  0
SPLINE
  5
215
330
1BD
100
AcDbEntity
  8
0
  6
Continuous
 62
   179
370
    25
100
AcDbSpline
210
0.0
220
0.0
230
1.0
 70
     8
 71
     3
 72
    11
 73
     7
 74
     0
 42
0.000000001
 43
0.00000001
 40
0.0
 40
0.0
 40
0.0
 40
0.0
 40
0.3257416124285504
 40
0.612767241095002
 40
0.8122933743257158
 40
1.0
 40
1.0
 40
1.0
 40
1.0
 10
0.3712307515106802
 20
0.1449999821234136
 30
0.0
 10
0.3711677702359298
 20
0.1457337100066977
 30
0.0
 10
0.3710492933189596
 20
0.1471139586258477
 30
0.0
 10
0.3701576392090055
 20
0.1487456690918661
 30
0.0
 10
0.3689921171710788
 20
0.1497996174232543
 30
0.0
 10
0.3681188467891412
 20
0.1499345863800263
 30
0.0
 10
0.3676955390164233
 20
0.1500000110293197
 30
0.0
  0
SPLINE
  5
216
330
1BD
100
AcDbEntity
  8
0
  6
Continuous
 62
   179
370
    25
100
AcDbSpline
210
0.0
220
0.0
230
1.0
 70
     8
 71
     3
 72
    11
 73
     7
 74
     0
 42
0.000000001
 43
0.00000001
 40
0.0
 40
0.0
 40
0.0
 40
0.0
 40
0.2390390368196137
 40
0.5038940410602791
 40
0.7402272629905383
 40
1.0
 40
1.0
 40
1.0
 40
1.0
 10
0.3676955390164233
 20
0.1250000131647623
 30
0.0
 10
0.368233866779645
 20
0.1251097884862947
 30
0.0
 10
0.3693686611447551
 20
0.1253411947499394
 30
0.0
 10
0.3704580171000993
 20
0.1267223721020406
 30
0.0
 10
0.3711142122112939
 20
0.1283006398836971
 30
0.0
 10
0.3711907004642201
 20
0.1294159846682079
 30
0.0
 10
0.3712307515106802
 20
0.1300000054044252
 30
0.0
  0
SPLINE
  5
217
330
1BD
100
AcDbEntity
  8
0
  6
Continuous
 62
   179
370
    25
100
AcDbSpline
210
0.0
220
0.0
230
1.0
 70
     8
 71
     3
 72
    11
 73
     7
 74
     0
 42
0.000000001
 43
0.00000001
 40
0.0
 40
0.0
 40
0.0
 40
0.0
 40
0.3257336084983773
 40
0.6127512949637489
 40
0.8122707552909505
 40
1.0
 40
1.0
 40
1.0
 40
1.0
 10
0.0
 20
0.1324999831911357
 30
0.0
 10
0.0000945978143959
 20
0.1313994081851391
 30
0.0
 10
0.0002725497719443
 20
0.1293290699009261
 30
0.0
 10
0.0016099431088465
 20
0.1268814890356739
 30
0.0
 10
0.003358325460398
 20
0.1253005119937041
 30
0.0
 10
0.0046683403725017
 20
0.1250981254805788
 30
0.0
 10
0.0053034054012749
 20
0.1250000131647623
 30
0.0
  0
SPLINE
  5
218
330
1BD
100
AcDbEntity
  8
0
  6
Continuous
 62
   179
370
    25
100
AcDbSpline
210
0.0
220
0.0
230
1.0
 70
     8
 71
     3
 72
    11
 73
     7
 74
     0
 42
0.000000001
 43
0.00000001
 40
0.0
 40
0.0
 40
0.0
 40
0.0
 40
0.2390443436412318
 40
0.503905227834732
 40
0.7402106079163103
 40
1.0
 40
1.0
 40
1.0
 40
1.0
 10
0.0035352124942569
 20
0.8624999868354659
 30
0.0
 10
0.002996903388202
 20
0.8623902048050813
 30
0.0
 10
0.0018621483523797
 20
0.862158784399183
 30
0.0
 10
0.0007725335092413
 20
0.860777779387132
 30
0.0
 10
0.0001174321162566
 20
0.8591991706981693
 30
0.0
 10
0.000040360176251
 20
0.8580839834495927
 30
0.0
 10
0.0
 20
0.8574999945958035
 30
0.0
  0
SPLINE
  5
219
330
1BD
100
AcDbEntity
  8
0
  6
Continuous
 62
   179
370
    25
100
AcDbSpline
210
0.0
220
0.0
230
1.0
 70
     8
 71
     3
 72
    11
 73
     7
 74
     0
 42
0.000000001
 43
0.00000001
 40
0.0
 40
0.0
 40
0.0
 40
0.0
 40
0.3257513665947126
 40
0.6127734091777457
 40
0.8122970495392295
 40
1.0
 40
1.0
 40
1.0
 40
1.0
 10
0.0176778224509532
 20
0.8574999945958035
 30
0.0
 10
0.0176145942416675
 20
0.8582337150539531
 30
0.0
 10
0.0174956551693155
 20
0.8596139222691193
 30
0.0
 10
0.0166041456175719
 20
0.8612456811663394
 30
0.0
 10
0.0154386018323649
 20
0.8622996372908762
 30
0.0
 10
0.0145653301529558
 20
0.8624345767322397
 30
0.0
 10
0.0141420232968068
 20
0.8624999868354659
 30
0.0
  0
SPLINE
  5
21A
330
1BD
100
AcDbEntity
  8
0
  6
Continuous
 62
   179
370
    25
100
AcDbSpline
210
0.0
220
0.0
230
1.0
 70
     8
 71
     3
 72
    10
 73
     6
 74
     0
 42
0.000000001
 43
0.00000001
 40
0.0
 40
0.0
 40
0.0
 40
0.0
 40
0.2573456864815254
 40
0.5336664656293134
 40
0.9999999999999999
 40
0.9999999999999999
 40
0.9999999999999999
 40
0.9999999999999999
 10
0.0161061606069249
 20
0.7408259190913471
 30
0.0
 10
0.0163648237532294
 20
0.7411201732277027
 30
0.0
 10
0.0169012222799102
 20
0.7417303779958214
 30
0.0
 10
0.0175199969012221
 20
0.7431455889016482
 30
0.0
 10
0.0176169456220014
 20
0.7442744668472399
 30
0.0
 10
0.0176778224509532
 20
0.7449833210646842
 30
0.0
  0
SPLINE
  5
21B
330
1BD
100
AcDbEntity
  8
0
  6
Continuous
 62
   179
370
    25
100
AcDbSpline
210
0.0
220
0.0
230
1.0
 70
     8
 71
     3
 72
    10
 73
     6
 74
     0
 42
0.000000001
 43
0.00000001
 40
0.0
 40
0.0
 40
0.0
 40
0.0
 40
0.3018048254886732
 40
0.5885031307552405
 40
1.0
 40
1.0
 40
1.0
 40
1.0
 10
0.0176778224509532
 20
0.7300166922937902
 30
0.0
 10
0.0176507779330999
 20
0.7304735137344983
 30
0.0
 10
0.0175980425820303
 20
0.7313642909035429
 30
0.0
 10
0.0171646360196853
 20
0.732844939134893
 30
0.0
 10
0.0164986652851146
 20
0.7336812043894092
 30
0.0
 10
0.0161061606069249
 20
0.7341740759340057
 30
0.0
  0
SPLINE
  5
21C
330
1BD
100
AcDbEntity
  8
0
  6
Continuous
 62
   179
370
    25
100
AcDbSpline
210
0.0
220
0.0
230
1.0
 70
     8
 71
     3
 72
    11
 73
     7
 74
     0
 42
0.000000001
 43
0.00000001
 40
0.0
 40
0.0
 40
0.0
 40
0.0
 40
0.2390399601392948
 40
0.5038968138424462
 40
0.7402303303332715
 40
1.0
 40
1.0
 40
1.0
 40
1.0
 10
0.0212130349452101
 20
0.4250000012892989
 30
0.0
 10
0.0206747068342548
 20
0.4251097815931812
 30
0.0
 10
0.0195399098749752
 20
0.4253411987391522
 30
0.0
 10
0.0184505602937907
 20
0.4267223858008876
 30
0.0
 10
0.0177943641792955
 20
0.4283006480900712
 30
0.0
 10
0.0177178741687005
 20
0.4294159850861021
 30
0.0
 10
0.0176778224509532
 20
0.4299999981122428
 30
0.0
  0
SPLINE
  5
21D
330
1BD
100
AcDbEntity
  8
0
  6
Continuous
 62
   179
370
    25
100
AcDbSpline
210
0.0
220
0.0
230
1.0
 70
     8
 71
     3
 72
    11
 73
     7
 74
     0
 42
0.000000001
 43
0.00000001
 40
0.0
 40
0.0
 40
0.0
 40
0.0
 40
0.3257390582408459
 40
0.6127672005778098
 40
0.8122934022970412
 40
1.0
 40
1.0
 40
1.0
 40
1.0
 10
0.3712307515106802
 20
0.4199999998830757
 30
0.0
 10
0.3711677680271346
 20
0.4207337193511288
 30
0.0
 10
0.371049286033899
 20
0.4221139628714385
 30
0.0
 10
0.3701576447665394
 20
0.4237456745907698
 30
0.0
 10
0.3689921172279449
 20
0.4247996238252927
 30
0.0
 10
0.3681188467353882
 20
0.4249345819212528
 30
0.0
 10
0.3676955390164233
 20
0.4250000012892989
 30
0.0
  0
SPLINE
  5
21E
330
1BD
100
AcDbEntity
  8
0
  6
Continuous
 62
   179
370
    25
100
AcDbSpline
210
0.0
220
0.0
230
1.0
 70
     8
 71
     3
 72
    11
 73
     7
 74
     0
 42
0.000000001
 43
0.00000001
 40
0.0
 40
0.0
 40
0.0
 40
0.0
 40
0.2390400777130609
 40
0.5038963242561494
 40
0.7402297508841499
 40
0.9999999999999999
 40
0.9999999999999999
 40
0.9999999999999999
 40
0.9999999999999999
 10
0.3676955390164233
 20
0.3999999988414611
 30
0.0
 10
0.3682338668605831
 20
0.4001097811114424
 30
0.0
 10
0.3693686615967274
 20
0.4003412020632808
 30
0.0
 10
0.3704580150333657
 20
0.401722383344894
 30
0.0
 10
0.3711142101340305
 20
0.4033006473420624
 30
0.0
 10
0.3711906998811039
 20
0.40441598575385
 30
0.0
 10
0.3712307515106802
 20
0.4050000002476848
 30
0.0
  0
SPLINE
  5
21F
330
1BD
100
AcDbEntity
  8
0
  6
Continuous
 62
   179
370
    25
100
AcDbSpline
210
0.0
220
0.0
230
1.0
 70
     8
 71
     3
 72
     9
 73
     5
 74
     0
 42
0.000000001
 43
0.00000001
 40
0.0
 40
0.0
 40
0.0
 40
0.0
 40
0.4377375238044887
 40
1.0
 40
1.0
 40
1.0
 40
1.0
 10
0.3676955390164233
 20
0.3999999988414611
 30
0.0
 10
0.3674880627356524
 20
0.4000041795275209
 30
0.0
 10
0.3670140885628007
 20
0.4000137301962042
 30
0.0
 10
0.366540024101892
 20
0.4000164762800429
 30
0.0
 10
0.366273475444223
 20
0.4000180202999423
 30
0.0
  0
SPLINE
  5
220
330
1BD
100
AcDbEntity
  8
0
  6
Continuous
 62
   179
370
    25
100
AcDbSpline
210
0.0
220
0.0
230
1.0
 70
     8
 71
     3
 72
     9
 73
     5
 74
     0
 42
0.000000001
 43
0.00000001
 40
0.0
 40
0.0
 40
0.0
 40
0.0
 40
0.5638260217970767
 40
0.9999999999999999
 40
0.9999999999999999
 40
0.9999999999999999
 40
0.9999999999999999
 10
0.3453367573069775
 20
0.3993090784896986
 30
0.0
 10
0.3457288403536896
 20
0.3995282370215497
 30
0.0
 10
0.3464242375711893
 20
0.3999169358814443
 30
0.0
 10
0.3472156092254695
 20
0.3999747721612248
 30
0.0
 10
0.3475607849481538
 20
0.3999999988414611
 30
0.0
  0
ENDBLK
  5
1BF
330
1BD
100
AcDbEntity
  8
0
100
AcDbBlockEnd
  0
BLOCK
  5
227
330
226
100
AcDbEntity
  8
0
100
AcDbBlockBegin
  2
SW_TABLEANNOTATION_0
 70
     0
 10
0.0
 20
0.0
 30
0.0
  3
SW_TABLEANNOTATION_0
  1

  0
LINE
  5
229
330
226
100
AcDbEntity
  8
FORMAT
 62
     0
100
AcDbLine
 10
0.0
 20
0.0
 30
0.0
 11
0.0
 21
-1.0877351438
 31
0.0
  0
LINE
  5
22A
330
226
100
AcDbEntity
  8
FORMAT
 62
     0
100
AcDbLine
 10
0.0
 20
-1.0877351438
 30
0.0
 11
3.5338148144
 21
-1.0877351438
 31
0.0
  0
LINE
  5
22B
330
226
100
AcDbEntity
  8
FORMAT
 62
     0
100
AcDbLine
 10
3.5338148144
 20
-1.0877351438
 30
0.0
 11
3.5338148144
 21
0.0
 31
0.0
  0
LINE
  5
22C
330
226
100
AcDbEntity
  8
FORMAT
 62
     0
100
AcDbLine
 10
3.5338148144
 20
0.0
 30
0.0
 11
0.0
 21
0.0
 31
0.0
  0
LINE
  5
22D
330
226
100
AcDbEntity
  8
FORMAT
 62
     0
100
AcDbLine
 10
1.7669074072
 20
-0.2175470288
 30
0.0
 11
1.7669074072
 21
-1.0877351438
 31
0.0
  0
LINE
  5
22E
330
226
100
AcDbEntity
  8
FORMAT
 62
     0
100
AcDbLine
 10
0.0
 20
-0.2175470288
 30
0.0
 11
3.5338148144
 21
-0.2175470288
 31
0.0
  0
LINE
  5
22F
330
226
100
AcDbEntity
  8
FORMAT
 62
     0
100
AcDbLine
 10
0.0
 20
-0.4350940575
 30
0.0
 11
3.5338148144
 21
-0.4350940575
 31
0.0
  0
LINE
  5
230
330
226
100
AcDbEntity
  8
FORMAT
 62
     0
100
AcDbLine
 10
0.0
 20
-0.6526410863
 30
0.0
 11
3.5338148144
 21
-0.6526410863
 31
0.0
  0
LINE
  5
231
330
226
100
AcDbEntity
  8
FORMAT
 62
     0
100
AcDbLine
 10
0.0
 20
-0.870188115
 30
0.0
 11
3.5338148144
 21
-0.870188115
 31
0.0
  0
MTEXT
  5
232
330
226
100
AcDbEntity
  8
FORMAT
 62
     0
100
AcDbMText
 10
1.0505634158
 20
-0.0372487842
 30
0.0
 40
0.1377952756
 41
0.0
 71
     1
 72
     1
  1
PANEL EDGE LED
  7
SLDTEXTSTYLE1
 73
     1
 44
1.0
  0
MTEXT
  5
233
330
226
100
AcDbEntity
  8
FORMAT
 62
     0
100
AcDbMText
 10
0.4847268631
 20
-0.2642743332
 30
0.0
 40
0.125
 41
0.0
 71
     1
 72
     1
  1
Panel Size
  7
SLDTEXTSTYLE1
 73
     1
 44
1.0
  0
MTEXT
  5
234
330
226
100
AcDbEntity
  8
FORMAT
 62
     0
100
AcDbMText
 10
1.9818425869
 20
-0.2642743332
 30
0.0
 40
0.125
 41
0.0
 71
     1
 72
     1
  1
Product Number
  7
SLDTEXTSTYLE1
 73
     1
 44
1.0
  0
MTEXT
  5
235
330
226
100
AcDbEntity
  8
FORMAT
 62
     0
100
AcDbMText
 10
0.7417098727
 20
-0.4870443925
 30
0.0
 40
0.1145833333
 41
0.0
 71
     1
 72
     1
  1
1/2"
  7
SLDTEXTSTYLE1
 73
     1
 44
1.0
  0
MTEXT
  5
236
330
226
100
AcDbEntity
  8
FORMAT
 62
     0
100
AcDbMText
 10
2.2956832614
 20
-0.4870443925
 30
0.0
 40
0.1145833333
 41
0.0
 71
     1
 72
     1
  1
PE-LED-50
  7
SLDTEXTSTYLE1
 73
     1
 44
1.0
  0
MTEXT
  5
237
330
226
100
AcDbEntity
  8
FORMAT
 62
     0
100
AcDbMText
 10
0.7417098727
 20
-0.7045914213
 30
0.0
 40
0.1145833333
 41
0.0
 71
     1
 72
     1
  1
3/4"
  7
SLDTEXTSTYLE1
 73
     1
 44
1.0
  0
MTEXT
  5
238
330
226
100
AcDbEntity
  8
FORMAT
 62
     0
100
AcDbMText
 10
2.2956832614
 20
-0.7045914213
 30
0.0
 40
0.1145833333
 41
0.0
 71
     1
 72
     1
  1
PE-LED-75
  7
SLDTEXTSTYLE1
 73
     1
 44
1.0
  0
MTEXT
  5
239
330
226
100
AcDbEntity
  8
FORMAT
 62
     0
100
AcDbMText
 10
0.8174621934
 20
-0.9221384501
 30
0.0
 40
0.1145833333
 41
0.0
 71
     1
 72
     1
  1
1"
  7
SLDTEXTSTYLE1
 73
     1
 44
1.0
  0
MTEXT
  5
23A
330
226
100
AcDbEntity
  8
FORMAT
 62
     0
100
AcDbMText
 10
2.2533510938
 20
-0.9221384501
 30
0.0
 40
0.1145833333
 41
0.0
 71
     1
 72
     1
  1
PE-LED-100
  7
SLDTEXTSTYLE1
 73
     1
 44
1.0
  0
ENDBLK
  5
228
330
226
100
AcDbEntity
  8
0
100
AcDbBlockEnd
  0
ENDSEC
  0
SECTION
  2
ENTITIES
  0
INSERT
  5
222
330
1F
100
AcDbEntity
  8
0
  6
Continuous
 62
     7
100
AcDbBlockReference
  2
Block3
 10
0.4370336966
 20
0.1602847181
 30
0.0
  0
INSERT
  5
223
330
1F
100
AcDbEntity
  8
FORMAT
100
AcDbBlockReference
  2
Block13_
 10
1.4051432085
 20
6.6359218574
 30
0.0
  0
INSERT
  5
224
330
1F
100
AcDbEntity
  8
FORMAT
100
AcDbBlockReference
  2
Block1
 10
5.9621038863
 20
7.7735245947
 30
0.0
  0
INSERT
  5
225
330
1F
100
AcDbEntity
  8
FORMAT
100
AcDbBlockReference
  2
Block14_
 10
6.0351854924
 20
4.0966114908
 30
0.0
  0
INSERT
  5
23B
330
1F
100
AcDbEntity
  8
FORMAT
100
AcDbBlockReference
  2
SW_TABLEANNOTATION_0
 10
0.4022611988
 20
4.9732050099
 30
0.0
  0
ENDSEC
  0
SECTION
  2
OBJECTS
  0
DICTIONARY
  5
C
330
0
100
AcDbDictionary
281
     1
  3
ACAD_GROUP
350
D
  3
ACAD_LAYOUT
350
1A
  3
ACAD_MLINESTYLE
350
17
  3
ACAD_PLOTSETTINGS
350
19
  3
ACAD_PLOTSTYLENAME
350
E
  3
ACAD_SCALELIST
350
47
  0
DICTIONARY
  5
D
102
{ACAD_REACTORS
330
C
102
}
330
C
100
AcDbDictionary
281
     1
  0
DICTIONARY
  5
1A
102
{ACAD_REACTORS
330
C
102
}
330
C
100
AcDbDictionary
281
     1
  3
Layout1
350
1E
  3
Layout2
350
26
  3
Model
350
22
  0
DICTIONARY
  5
17
102
{ACAD_REACTORS
330
C
102
}
330
C
100
AcDbDictionary
281
     1
  3
Standard
350
18
  0
DICTIONARY
  5
19
102
{ACAD_REACTORS
330
C
102
}
330
C
100
AcDbDictionary
281
     1
  0
ACDBDICTIONARYWDFLT
  5
E
102
{ACAD_REACTORS
330
C
102
}
330
C
100
AcDbDictionary
281
     1
  3
Normal
350
F
100
AcDbDictionaryWithDefault
340
F
  0
DICTIONARY
  5
47
102
{ACAD_REACTORS
330
C
102
}
330
C
100
AcDbDictionary
281
     1
  3
A0
350
48
  3
A1
350
49
  3
A2
350
4A
  3
A3
350
4B
  3
A4
350
4C
  3
A5
350
4D
  3
A6
350
4E
  3
A7
350
4F
  3
A8
350
50
  3
A9
350
51
  3
B0
350
52
  3
B1
350
53
  3
B2
350
54
  3
B3
350
55
  3
B4
350
56
  3
B5
350
57
  3
B6
350
58
  3
B7
350
59
  3
B8
350
5A
  3
B9
350
5B
  3
C0
350
5C
  3
C1
350
5D
  3
C2
350
5E
  3
C3
350
5F
  3
C4
350
60
  3
C5
350
61
  3
C6
350
62
  3
C7
350
63
  3
C8
350
64
  3
C9
350
65
  3
D0
350
66
  3
D1
350
67
  3
D2
350
68
  0
LAYOUT
  5
1E
102
{ACAD_REACTORS
330
1A
102
}
330
1A
100
AcDbPlotSettings
  1

  2
none_device
  4

  6

 40
0.0
 41
0.0
 42
0.0
 43
0.0
 44
0.0
 45
0.0
 46
0.0
 47
0.0
 48
0.0
 49
0.0
140
0.0
141
0.0
142
1.0
143
1.0
 70
   688
 72
     0
 73
     0
 74
     5
  7

 75
    16
147
1.0
148
0.0
149
0.0
100
AcDbLayout
  1
Layout1
 70
     1
 71
     1
 10
0.0
 20
0.0
 11
12.0
 21
9.0
 12
0.0
 22
0.0
 32
0.0
 14
1.0000000000E+20
 24
1.0000000000E+20
 34
1.0000000000E+20
 15
-1.0000000000E+20
 25
-1.0000000000E+20
 35
-1.0000000000E+20
146
0.0
 13
0.0
 23
0.0
 33
0.0
 16
1.0
 26
0.0
 36
0.0
 17
0.0
 27
1.0
 37
0.0
 76
     0
330
1B
  0
LAYOUT
  5
26
102
{ACAD_REACTORS
330
1A
102
}
330
1A
100
AcDbPlotSettings
  1

  2
none_device
  4

  6

 40
0.0
 41
0.0
 42
0.0
 43
0.0
 44
0.0
 45
0.0
 46
0.0
 47
0.0
 48
0.0
 49
0.0
140
0.0
141
0.0
142
1.0
143
1.0
 70
   688
 72
     0
 73
     0
 74
     5
  7

 75
    16
147
1.0
148
0.0
149
0.0
100
AcDbLayout
  1
Layout2
 70
     1
 71
     2
 10
0.0
 20
0.0
 11
0.0
 21
0.0
 12
0.0
 22
0.0
 32
0.0
 14
0.0
 24
0.0
 34
0.0
 15
0.0
 25
0.0
 35
0.0
146
0.0
 13
0.0
 23
0.0
 33
0.0
 16
1.0
 26
0.0
 36
0.0
 17
0.0
 27
1.0
 37
0.0
 76
     0
330
23
  0
LAYOUT
  5
22
102
{ACAD_REACTORS
330
1A
102
}
330
1A
100
AcDbPlotSettings
  1

  2
none_device
  4
Letter_(8.50_x_11.00_Inches)
  6

 40
6.35
 41
6.35
 42
6.35000508
 43
6.35000508
 44
215.9
 45
279.4
 46
0.0
 47
0.0
 48
0.0
 49
0.0
140
0.0
141
0.0
142
1.0
143
1.0
 70
  1712
 72
     0
 73
     0
 74
     0
  7

 75
     0
147
1.0
148
0.0
149
0.0
100
AcDbLayout
  1
Model
 70
     1
 71
     0
 10
0.0
 20
0.0
 11
16.5354330709
 21
11.6929133858
 12
0.0
 22
0.0
 32
0.0
 14
0.0
 24
0.0
 34
0.0
 15
16.5354330709
 25
11.6929133858
 35
0.0
146
0.0
 13
0.0
 23
0.0
 33
0.0
 16
1.0
 26
0.0
 36
0.0
 17
0.0
 27
1.0
 37
0.0
 76
     0
330
1F
331
29
  0
MLINESTYLE
  5
18
102
{ACAD_REACTORS
330
17
102
}
330
17
100
AcDbMlineStyle
  2
Standard
 70
     0
  3

 62
   256
 51
90.0
 52
90.0
 71
     2
 49
0.5
 62
   256
  6
BYLAYER
 49
-0.5
 62
   256
  6
BYLAYER
  0
ACDBPLACEHOLDER
  5
F
102
{ACAD_REACTORS
330
E
102
}
330
E
  0
SCALE
  5
48
102
{ACAD_REACTORS
330
47
102
}
330
47
100
AcDbScale
 70
     0
300
1:1
140
1.0
141
1.0
290
     1
  0
SCALE
  5
49
102
{ACAD_REACTORS
330
47
102
}
330
47
100
AcDbScale
 70
     0
300
1:2
140
1.0
141
2.0
290
     0
  0
SCALE
  5
4A
102
{ACAD_REACTORS
330
47
102
}
330
47
100
AcDbScale
 70
     0
300
1:4
140
1.0
141
4.0
290
     0
  0
SCALE
  5
4B
102
{ACAD_REACTORS
330
47
102
}
330
47
100
AcDbScale
 70
     0
300
1:5
140
1.0
141
5.0
290
     0
  0
SCALE
  5
4C
102
{ACAD_REACTORS
330
47
102
}
330
47
100
AcDbScale
 70
     0
300
1:8
140
1.0
141
8.0
290
     0
  0
SCALE
  5
4D
102
{ACAD_REACTORS
330
47
102
}
330
47
100
AcDbScale
 70
     0
300
1:10
140
1.0
141
10.0
290
     0
  0
SCALE
  5
4E
102
{ACAD_REACTORS
330
47
102
}
330
47
100
AcDbScale
 70
     0
300
1:16
140
1.0
141
16.0
290
     0
  0
SCALE
  5
4F
102
{ACAD_REACTORS
330
47
102
}
330
47
100
AcDbScale
 70
     0
300
1:20
140
1.0
141
20.0
290
     0
  0
SCALE
  5
50
102
{ACAD_REACTORS
330
47
102
}
330
47
100
AcDbScale
 70
     0
300
1:30
140
1.0
141
30.0
290
     0
  0
SCALE
  5
51
102
{ACAD_REACTORS
330
47
102
}
330
47
100
AcDbScale
 70
     0
300
1:40
140
1.0
141
40.0
290
     0
  0
SCALE
  5
52
102
{ACAD_REACTORS
330
47
102
}
330
47
100
AcDbScale
 70
     0
300
1:50
140
1.0
141
50.0
290
     0
  0
SCALE
  5
53
102
{ACAD_REACTORS
330
47
102
}
330
47
100
AcDbScale
 70
     0
300
1:100
140
1.0
141
100.0
290
     0
  0
SCALE
  5
54
102
{ACAD_REACTORS
330
47
102
}
330
47
100
AcDbScale
 70
     0
300
2:1
140
2.0
141
1.0
290
     0
  0
SCALE
  5
55
102
{ACAD_REACTORS
330
47
102
}
330
47
100
AcDbScale
 70
     0
300
4:1
140
4.0
141
1.0
290
     0
  0
SCALE
  5
56
102
{ACAD_REACTORS
330
47
102
}
330
47
100
AcDbScale
 70
     0
300
8:1
140
8.0
141
1.0
290
     0
  0
SCALE
  5
57
102
{ACAD_REACTORS
330
47
102
}
330
47
100
AcDbScale
 70
     0
300
10:1
140
10.0
141
1.0
290
     0
  0
SCALE
  5
58
102
{ACAD_REACTORS
330
47
102
}
330
47
100
AcDbScale
 70
     0
300
100:1
140
100.0
141
1.0
290
     0
  0
SCALE
  5
59
102
{ACAD_REACTORS
330
47
102
}
330
47
100
AcDbScale
 70
     0
300
1/128" = 1'-0"
140
0.0078125
141
12.0
290
     0
  0
SCALE
  5
5A
102
{ACAD_REACTORS
330
47
102
}
330
47
100
AcDbScale
 70
     0
300
1/64" = 1'-0"
140
0.015625
141
12.0
290
     0
  0
SCALE
  5
5B
102
{ACAD_REACTORS
330
47
102
}
330
47
100
AcDbScale
 70
     0
300
1/32" = 1'-0"
140
0.03125
141
12.0
290
     0
  0
SCALE
  5
5C
102
{ACAD_REACTORS
330
47
102
}
330
47
100
AcDbScale
 70
     0
300
1/16" = 1'-0"
140
0.0625
141
12.0
290
     0
  0
SCALE
  5
5D
102
{ACAD_REACTORS
330
47
102
}
330
47
100
AcDbScale
 70
     0
300
3/32" = 1'-0"
140
0.09375
141
12.0
290
     0
  0
SCALE
  5
5E
102
{ACAD_REACTORS
330
47
102
}
330
47
100
AcDbScale
 70
     0
300
1/8" = 1'-0"
140
0.125
141
12.0
290
     0
  0
SCALE
  5
5F
102
{ACAD_REACTORS
330
47
102
}
330
47
100
AcDbScale
 70
     0
300
3/16" = 1'-0"
140
0.1875
141
12.0
290
     0
  0
SCALE
  5
60
102
{ACAD_REACTORS
330
47
102
}
330
47
100
AcDbScale
 70
     0
300
1/4" = 1'-0"
140
0.25
141
12.0
290
     0
  0
SCALE
  5
61
102
{ACAD_REACTORS
330
47
102
}
330
47
100
AcDbScale
 70
     0
300
3/8" = 1'-0"
140
0.375
141
12.0
290
     0
  0
SCALE
  5
62
102
{ACAD_REACTORS
330
47
102
}
330
47
100
AcDbScale
 70
     0
300
1/2" = 1'-0"
140
0.5
141
12.0
290
     0
  0
SCALE
  5
63
102
{ACAD_REACTORS
330
47
102
}
330
47
100
AcDbScale
 70
     0
300
3/4" = 1'-0"
140
0.75
141
12.0
290
     0
  0
SCALE
  5
64
102
{ACAD_REACTORS
330
47
102
}
330
47
100
AcDbScale
 70
     0
300
1" = 1'-0"
140
1.0
141
12.0
290
     0
  0
SCALE
  5
65
102
{ACAD_REACTORS
330
47
102
}
330
47
100
AcDbScale
 70
     0
300
1-1/2" = 1'-0"
140
1.5
141
12.0
290
     0
  0
SCALE
  5
66
102
{ACAD_REACTORS
330
47
102
}
330
47
100
AcDbScale
 70
     0
300
3" = 1'-0"
140
3.0
141
12.0
290
     0
  0
SCALE
  5
67
102
{ACAD_REACTORS
330
47
102
}
330
47
100
AcDbScale
 70
     0
300
6" = 1'-0"
140
6.0
141
12.0
290
     0
  0
SCALE
  5
68
102
{ACAD_REACTORS
330
47
102
}
330
47
100
AcDbScale
 70
     0
300
1'-0" = 1'-0"
140
12.0
141
12.0
290
     0
  0
ENDSEC
  0
EOF
