  0
SECTION
  2
HEADER
  9
$ACADVER
  1
AC1015
  9
$ACADMAINTVER
 70
     6
  9
$DWGCODEPAGE
  3
ANSI_1251
  9
$INSBASE
 10
0.0
 20
0.0
 30
0.0
  9
$EXTMIN
 10
0.0
 20
0.0
 30
0.0
  9
$EXTMAX
 10
16.5354330709
 20
11.6929133858
 30
0.0
  9
$LIMMIN
 10
0.0
 20
0.0
  9
$LIMMAX
 10
16.5354330709
 20
11.6929133858
  9
$ORTHOMODE
 70
     0
  9
$REGENMODE
 70
     1
  9
$FILLMODE
 70
     1
  9
$QTEXTMODE
 70
     0
  9
$MIRRTEXT
 70
     1
  9
$LTSCALE
 40
1.0
  9
$ATTMODE
 70
     1
  9
$TEXTSIZE
 40
0.1377952756
  9
$TRACEWID
 40
0.05
  9
$TEXTSTYLE
  7
Standard
  9
$CLAYER
  8
0
  9
$CELTYPE
  6
ByLayer
  9
$CECOLOR
 62
   256
  9
$CELTSCALE
 40
1.0
  9
$DISPSILH
 70
     0
  9
$DIMSCALE
 40
1.0
  9
$DIMASZ
 40
0.13
  9
$DIMEXO
 40
0.1
  9
$DIMDLI
 40
0.38
  9
$DIMRND
 40
0.0
  9
$DIMDLE
 40
0.0
  9
$DIMEXE
 40
0.0393700787
  9
$DIMTP
 40
0.0
  9
$DIMTM
 40
0.0
  9
$DIMTXT
 40
0.1377952756
  9
$DIMCEN
 40
0.09
  9
$DIMTSZ
 40
0.0
  9
$DIMTOL
 70
     0
  9
$DIMLIM
 70
     0
  9
$DIMTIH
 70
     1
  9
$DIMTOH
 70
     1
  9
$DIMSE1
 70
     0
  9
$DIMSE2
 70
     0
  9
$DIMTAD
 70
     1
  9
$DIMZIN
 70
     0
  9
$DIMBLK
  1

  9
$DIMASO
 70
     1
  9
$DIMSHO
 70
     1
  9
$DIMPOST
  1

  9
$DIMAPOST
  1

  9
$DIMALT
 70
     0
  9
$DIMALTD
 70
     2
  9
$DIMALTF
 40
25.4
  9
$DIMLFAC
 40
1.0
  9
$DIMTOFL
 70
     0
  9
$DIMTVP
 40
0.0
  9
$DIMTIX
 70
     0
  9
$DIMSOXD
 70
     0
  9
$DIMSAH
 70
     0
  9
$DIMBLK1
  1

  9
$DIMBLK2
  1

  9
$DIMSTYLE
  2
Standard
  9
$DIMCLRD
 70
     0
  9
$DIMCLRE
 70
     0
  9
$DIMCLRT
 70
     0
  9
$DIMTFAC
 40
1.0
  9
$DIMGAP
 40
0.06
  9
$DIMJUST
 70
     0
  9
$DIMSD1
 70
     0
  9
$DIMSD2
 70
     0
  9
$DIMTOLJ
 70
     1
  9
$DIMTZIN
 70
     0
  9
$DIMALTZ
 70
     0
  9
$DIMALTTZ
 70
     0
  9
$DIMUPT
 70
     0
  9
$DIMDEC
 70
     2
  9
$DIMTDEC
 70
     2
  9
$DIMALTU
 70
     2
  9
$DIMALTTD
 70
     2
  9
$DIMTXSTY
  7
Standard
  9
$DIMAUNIT
 70
     0
  9
$DIMADEC
 70
     2
  9
$DIMALTRND
 40
0.0
  9
$DIMAZIN
 70
     0
  9
$DIMDSEP
 70
    46
  9
$DIMATFIT
 70
     3
  9
$DIMFRAC
 70
     0
  9
$DIMLDRBLK
  1

  9
$DIMLUNIT
 70
     2
  9
$DIMLWD
 70
    -2
  9
$DIMLWE
 70
    -2
  9
$DIMTMOVE
 70
     0
  9
$LUNITS
 70
     2
  9
$LUPREC
 70
     2
  9
$SKETCHINC
 40
0.1
  9
$FILLETRAD
 40
0.5
  9
$AUNITS
 70
     0
  9
$AUPREC
 70
     2
  9
$MENU
  1
.
  9
$ELEVATION
 40
0.0
  9
$PELEVATION
 40
0.0
  9
$THICKNESS
 40
0.0
  9
$LIMCHECK
 70
     0
  9
$CHAMFERA
 40
0.0
  9
$CHAMFERB
 40
0.0
  9
$CHAMFERC
 40
0.0
  9
$CHAMFERD
 40
0.0
  9
$SKPOLY
 70
     0
  9
$TDCREATE
 40
2458226.143793669
  9
$TDUCREATE
 40
2458225.977127002
  9
$TDUPDATE
 40
2458226.143794259
  9
$TDUUPDATE
 40
2458225.977127593
  9
$TDINDWG
 40
0.0000000116
  9
$TDUSRTIMER
 40
0.0000000116
  9
$USRTIMER
 70
     1
  9
$ANGBASE
 50
0.0
  9
$ANGDIR
 70
     0
  9
$PDMODE
 70
     0
  9
$PDSIZE
 40
-1.0
  9
$PLINEWID
 40
0.0
  9
$SPLFRAME
 70
     0
  9
$SPLINETYPE
 70
     6
  9
$SPLINESEGS
 70
     8
  9
$HANDSEED
  5
23D
  9
$SURFTAB1
 70
     6
  9
$SURFTAB2
 70
     6
  9
$SURFTYPE
 70
     6
  9
$SURFU
 70
     6
  9
$SURFV
 70
     6
  9
$UCSBASE
  2

  9
$UCSNAME
  2

  9
$UCSORG
 10
0.0
 20
0.0
 30
0.0
  9
$UCSXDIR
 10
1.0
 20
0.0
 30
0.0
  9
$UCSYDIR
 10
0.0
 20
1.0
 30
0.0
  9
$UCSORTHOREF
  2

  9
$UCSORTHOVIEW
 70
     0
  9
$UCSORGTOP
 10
0.0
 20
0.0
 30
0.0
  9
$UCSORGBOTTOM
 10
0.0
 20
0.0
 30
0.0
  9
$UCSORGLEFT
 10
0.0
 20
0.0
 30
0.0
  9
$UCSORGRIGHT
 10
0.0
 20
0.0
 30
0.0
  9
$UCSORGFRONT
 10
0.0
 20
0.0
 30
0.0
  9
$UCSORGBACK
 10
0.0
 20
0.0
 30
0.0
  9
$PUCSBASE
  2

  9
$PUCSNAME
  2

  9
$PUCSORG
 10
0.0
 20
0.0
 30
0.0
  9
$PUCSXDIR
 10
1.0
 20
0.0
 30
0.0
  9
$PUCSYDIR
 10
0.0
 20
1.0
 30
0.0
  9
$PUCSORTHOREF
  2

  9
$PUCSORTHOVIEW
 70
     0
  9
$PUCSORGTOP
 10
0.0
 20
0.0
 30
0.0
  9
$PUCSORGBOTTOM
 10
0.0
 20
0.0
 30
0.0
  9
$PUCSORGLEFT
 10
0.0
 20
0.0
 30
0.0
  9
$PUCSORGRIGHT
 10
0.0
 20
0.0
 30
0.0
  9
$PUCSORGFRONT
 10
0.0
 20
0.0
 30
0.0
  9
$PUCSORGBACK
 10
0.0
 20
0.0
 30
0.0
  9
$USERI1
 70
     0
  9
$USERI2
 70
     0
  9
$USERI3
 70
     0
  9
$USERI4
 70
     0
  9
$USERI5
 70
     0
  9
$USERR1
 40
0.0
  9
$USERR2
 40
0.0
  9
$USERR3
 40
0.0
  9
$USERR4
 40
0.0
  9
$USERR5
 40
0.0
  9
$WORLDVIEW
 70
     1
  9
$SHADEDGE
 70
     3
  9
$SHADEDIF
 70
    70
  9
$TILEMODE
 70
     1
  9
$MAXACTVP
 70
    64
  9
$PINSBASE
 10
0.0
 20
0.0
 30
0.0
  9
$PLIMCHECK
 70
     0
  9
$PEXTMIN
 10
1.0000000000E+20
 20
1.0000000000E+20
 30
1.0000000000E+20
  9
$PEXTMAX
 10
-1.0000000000E+20
 20
-1.0000000000E+20
 30
-1.0000000000E+20
  9
$PLIMMIN
 10
0.0
 20
0.0
  9
$PLIMMAX
 10
12.0
 20
9.0
  9
$UNITMODE
 70
     0
  9
$VISRETAIN
 70
     1
  9
$PLINEGEN
 70
     0
  9
$PSLTSCALE
 70
     1
  9
$TREEDEPTH
 70
  3020
  9
$CMLSTYLE
  2
Standard
  9
$CMLJUST
 70
     0
  9
$CMLSCALE
 40
1.0
  9
$PROXYGRAPHICS
 70
     1
  9
$MEASUREMENT
 70
     0
  9
$CELWEIGHT
370
    -1
  9
$ENDCAPS
280
     0
  9
$JOINSTYLE
280
     0
  9
$LWDISPLAY
290
     1
  9
$INSUNITS
 70
     1
  9
$HYPERLINKBASE
  1

  9
$STYLESHEET
  1

  9
$XEDIT
290
     1
  9
$CEPSNTYPE
380
     0
  9
$PSTYLEMODE
290
     1
  9
$FINGERPRINTGUID
  2
{6842AE93-4DE8-4204-A5F3-CC5B72B1E81C}
  9
$VERSIONGUID
  2
{FAEB1C32-E019-11D5-929B-00C0DF256EC4}
  9
$EXTNAMES
290
     1
  9
$PSVPSCALE
 40
0.0
  9
$OLESTARTUP
290
     0
  0
ENDSEC
  0
SECTION
  2
CLASSES
  0
CLASS
  1
ACDBDICTIONARYWDFLT
  2
AcDbDictionaryWithDefault
  3
ObjectDBX Classes
 90
        0
280
     0
281
     0
  0
CLASS
  1
VISUALSTYLE
  2
AcDbVisualStyle
  3
ObjectDBX Classes
 90
     4095
280
     0
281
     0
  0
CLASS
  1
MATERIAL
  2
AcDbMaterial
  3
ObjectDBX Classes
 90
     1153
280
     0
281
     0
  0
CLASS
  1
SCALE
  2
AcDbScale
  3
ObjectDBX Classes
 90
     1153
280
     0
281
     0
  0
CLASS
  1
TABLESTYLE
  2
AcDbTableStyle
  3
ObjectDBX Classes
 90
     4095
280
     0
281
     0
  0
CLASS
  1
MLEADERSTYLE
  2
AcDbMLeaderStyle
  3
ACDB_MLEADERSTYLE_CLASS
 90
     4095
280
     0
281
     0
  0
CLASS
  1
SUN
  2
AcDbSun
  3
SCENEOE
 90
     1153
280
     0
281
     0
  0
CLASS
  1
ACDBPLACEHOLDER
  2
AcDbPlaceHolder
  3
ObjectDBX Classes
 90
        0
280
     0
281
     0
  0
CLASS
  1
LAYOUT
  2
AcDbLayout
  3
ObjectDBX Classes
 90
        0
280
     0
281
     0
  0
ENDSEC
  0
SECTION
  2
TABLES
  0
TABLE
  2
VPORT
  5
8
330
0
100
AcDbSymbolTable
 70
     1
  0
VPORT
  5
29
330
8
100
AcDbSymbolTableRecord
100
AcDbViewportTableRecord
  2
*Active
 70
     0
 10
0.0
 20
0.0
 11
1.0
 21
1.0
 12
8.2677165354
 22
5.8464566929
 13
0.0
 23
0.0
 14
0.5
 24
0.5
 15
0.5
 25
0.5
 16
0.0
 26
0.0
 36
1.0
 17
0.0
 27
0.0
 37
0.0
 40
11.6929133858
 41
1.4141414141
 42
50.0
 43
0.0
 44
0.0
 50
0.0
 51
0.0
 71
     0
 72
  2000
 73
     1
 74
     3
 75
     0
 76
     0
 77
     0
 78
     0
281
     0
 65
     1
110
0.0
120
0.0
130
0.0
111
1.0
121
0.0
131
0.0
112
0.0
122
1.0
132
0.0
 79
     0
146
0.0
  0
ENDTAB
  0
TABLE
  2
LTYPE
  5
5
330
0
100
AcDbSymbolTable
 70
     6
  0
LTYPE
  5
14
330
5
100
AcDbSymbolTableRecord
100
AcDbLinetypeTableRecord
  2
ByBlock
 70
     0
  3

 72
    65
 73
     0
 40
0.0
  0
LTYPE
  5
15
330
5
100
AcDbSymbolTableRecord
100
AcDbLinetypeTableRecord
  2
ByLayer
 70
     0
  3

 72
    65
 73
     0
 40
0.0
  0
LTYPE
  5
16
330
5
100
AcDbSymbolTableRecord
100
AcDbLinetypeTableRecord
  2
Continuous
 70
     0
  3
Solid line
 72
    65
 73
     0
 40
0.0
  0
LTYPE
  5
6E
330
5
100
AcDbSymbolTableRecord
100
AcDbLinetypeTableRecord
  2
HIDDEN
 70
     0
  3
Hidden __ __ __ __ __ __ __ __ __ __ __ __ __ __
 72
    65
 73
     2
 40
0.075
 49
0.05
 74
     0
 49
-0.025
 74
     0
  0
LTYPE
  5
6F
330
5
100
AcDbSymbolTableRecord
100
AcDbLinetypeTableRecord
  2
PHANTOM
 70
     0
  3
Phantom ______  __  __  ______  __  __  ______
 72
    65
 73
     6
 40
0.5
 49
0.25
 74
     0
 49
-0.05
 74
     0
 49
0.05
 74
     0
 49
-0.05
 74
     0
 49
0.05
 74
     0
 49
-0.05
 74
     0
  0
LTYPE
  5
70
330
5
100
AcDbSymbolTableRecord
100
AcDbLinetypeTableRecord
  2
CENTER
 70
     0
  3
Center ____ _ ____ _ ____ _ ____ _ ____ _ ____
 72
    65
 73
     4
 40
0.4
 49
0.25
 74
     0
 49
-0.05
 74
     0
 49
0.05
 74
     0
 49
-0.05
 74
     0
  0
LTYPE
  5
71
330
5
100
AcDbSymbolTableRecord
100
AcDbLinetypeTableRecord
  2
CENTERX2
 70
     0
  3
Center (2x) ________  __  ________  __  _____
 72
    65
 73
     4
 40
0.8
 49
0.5
 74
     0
 49
-0.1
 74
     0
 49
0.1
 74
     0
 49
-0.1
 74
     0
  0
LTYPE
  5
72
330
5
100
AcDbSymbolTableRecord
100
AcDbLinetypeTableRecord
  2
DOT2
 70
     0
  3
Dot (.5x) ........................................
 72
    65
 73
     2
 40
0.025
 49
0.0
 74
     0
 49
-0.025
 74
     0
  0
ENDTAB
  0
TABLE
  2
LAYER
  5
2
330
0
100
AcDbSymbolTable
 70
     5
  0
LAYER
  5
10
330
2
100
AcDbSymbolTableRecord
100
AcDbLayerTableRecord
  2
0
 70
     0
 62
     7
  6
Continuous
370
    -3
390
F
  0
LAYER
  5
73
330
2
100
AcDbSymbolTableRecord
100
AcDbLayerTableRecord
  2
FORMAT
 70
     0
 62
     7
  6
Continuous
370
    -3
390
F
  0
LAYER
  5
74
330
2
100
AcDbSymbolTableRecord
100
AcDbLayerTableRecord
  2
SLD-0
 70
     0
 62
   179
  6
Continuous
370
    -3
390
F
  0
LAYER
  5
75
330
2
100
AcDbSymbolTableRecord
100
AcDbLayerTableRecord
  2
AM_6
 70
     0
 62
     2
  6
Continuous
370
    35
390
F
  0
LAYER
  5
76
330
2
100
AcDbSymbolTableRecord
100
AcDbLayerTableRecord
  2
THINM
 70
     0
 62
     6
  6
Continuous
370
    -3
390
F
  0
ENDTAB
  0
TABLE
  2
STYLE
  5
3
330
0
100
AcDbSymbolTable
 70
     5
  0
STYLE
  5
11
330
3
100
AcDbSymbolTableRecord
100
AcDbTextStyleTableRecord
  2
Standard
 70
     0
 40
0.0
 41
1.0
 50
0.0
 71
     0
 42
0.1377952756
  3
txt
  4

  0
STYLE
  5
7D
330
3
100
AcDbSymbolTableRecord
100
AcDbTextStyleTableRecord
  2
SLDTEXTSTYLE0
 70
     0
 40
0.0
 41
0.605
 50
0.0
 71
     0
 42
0.1377952756
  3
TXT
  4

  0
STYLE
  5
14F
330
3
100
AcDbSymbolTableRecord
100
AcDbTextStyleTableRecord
  2
SLDTEXTSTYLE1
 70
     0
 40
0.0
 41
0.75
 50
0.0
 71
     0
 42
0.1377952756
  3
TXT
  4

  0
STYLE
  5
155
330
3
100
AcDbSymbolTableRecord
100
AcDbTextStyleTableRecord
  2
SLDTEXTSTYLE2
 70
     0
 40
0.0
 41
0.6666666667
 50
0.0
 71
     0
 42
0.1377952756
  3
TXT
  4

  0
STYLE
  5
1C1
330
3
100
AcDbSymbolTableRecord
100
AcDbTextStyleTableRecord
  2
SLDTEXTSTYLE3
 70
     0
 40
0.0
 41
0.6875
 50
0.0
 71
     0
 42
0.1377952756
  3
TXT
  4

  0
ENDTAB
  0
TABLE
  2
VIEW
  5
6
330
0
100
AcDbSymbolTable
 70
     0
  0
ENDTAB
  0
TABLE
  2
UCS
  5
7
330
0
100
AcDbSymbolTable
 70
     0
  0
ENDTAB
  0
TABLE
  2
APPID
  5
9
330
0
100
AcDbSymbolTable
 70
     1
  0
APPID
  5
12
330
9
100
AcDbSymbolTableRecord
100
AcDbRegAppTableRecord
  2
ACAD
 70
     0
  0
ENDTAB
  0
TABLE
  2
DIMSTYLE
  5
A
330
0
100
AcDbSymbolTable
 70
     1
100
AcDbDimStyleTable
  0
DIMSTYLE
105
27
330
A
100
AcDbSymbolTableRecord
100
AcDbDimStyleTableRecord
  2
Standard
 70
     0
178
     0
340
11
  0
ENDTAB
  0
TABLE
  2
BLOCK_RECORD
  5
1
330
0
100
AcDbSymbolTable
 70
     9
  0
BLOCK_RECORD
  5
1F
330
1
100
AcDbSymbolTableRecord
100
AcDbBlockTableRecord
  2
*Model_Space
340
22
  0
BLOCK_RECORD
  5
1B
330
1
100
AcDbSymbolTableRecord
100
AcDbBlockTableRecord
  2
*Paper_Space
340
1E
  0
BLOCK_RECORD
  5
23
330
1
100
AcDbSymbolTableRecord
100
AcDbBlockTableRecord
  2
*Paper_Space0
340
26
  0
BLOCK_RECORD
  5
77
330
1
100
AcDbSymbolTableRecord
100
AcDbBlockTableRecord
  2
Block3
340
0
102
{BLKREFS
331
226
102
}
  0
BLOCK_RECORD
  5
7A
330
1
100
AcDbSymbolTableRecord
100
AcDbBlockTableRecord
  2
SW_NOTE_0
340
0
102
{BLKREFS
331
82
102
}
  0
BLOCK_RECORD
  5
83
330
1
100
AcDbSymbolTableRecord
100
AcDbBlockTableRecord
  2
SW_NOTE_1
340
0
102
{BLKREFS
331
89
102
}
  0
BLOCK_RECORD
  5
8A
330
1
100
AcDbSymbolTableRecord
100
AcDbBlockTableRecord
  2
Block9
340
0
102
{BLKREFS
331
222
102
}
  0
BLOCK_RECORD
  5
F6
330
1
100
AcDbSymbolTableRecord
100
AcDbBlockTableRecord
  2
Block1
340
0
102
{BLKREFS
331
224
102
}
  0
BLOCK_RECORD
  5
159
330
1
100
AcDbSymbolTableRecord
100
AcDbBlockTableRecord
  2
Block13_
340
0
102
{BLKREFS
331
225
102
}
  0
BLOCK_RECORD
  5
1C3
330
1
100
AcDbSymbolTableRecord
100
AcDbBlockTableRecord
  2
Block14_
340
0
102
{BLKREFS
331
223
102
}
  0
BLOCK_RECORD
  5
227
330
1
100
AcDbSymbolTableRecord
100
AcDbBlockTableRecord
  2
SW_TABLEANNOTATION_0
340
0
102
{BLKREFS
331
23C
102
}
  0
ENDTAB
  0
ENDSEC
  0
SECTION
  2
BLOCKS
  0
BLOCK
  5
20
330
1F
100
AcDbEntity
  8
0
100
AcDbBlockBegin
  2
*Model_Space
 70
     0
 10
0.0
 20
0.0
 30
0.0
  3
*Model_Space
  1

  0
ENDBLK
  5
21
330
1F
100
AcDbEntity
  8
0
100
AcDbBlockEnd
  0
BLOCK
  5
1C
330
1B
100
AcDbEntity
 67
     1
  8
0
100
AcDbBlockBegin
  2
*Paper_Space
 70
     0
 10
0.0
 20
0.0
 30
0.0
  3
*Paper_Space
  1

  0
ENDBLK
  5
1D
330
1B
100
AcDbEntity
 67
     1
  8
0
100
AcDbBlockEnd
  0
BLOCK
  5
24
330
23
100
AcDbEntity
  8
0
100
AcDbBlockBegin
  2
*Paper_Space0
 70
     0
 10
0.0
 20
0.0
 30
0.0
  3
*Paper_Space0
  1

  0
ENDBLK
  5
25
330
23
100
AcDbEntity
  8
0
100
AcDbBlockEnd
  0
BLOCK
  5
78
330
77
100
AcDbEntity
  8
0
100
AcDbBlockBegin
  2
Block3
 70
     0
 10
0.0
 20
0.0
 30
0.0
  3
Block3
  1

  0
INSERT
  5
82
330
77
100
AcDbEntity
  8
FORMAT
 62
     7
100
AcDbBlockReference
  2
SW_NOTE_0
 10
12.3157836875
 20
0.7426152712
 30
0.0
  0
INSERT
  5
89
330
77
100
AcDbEntity
  8
FORMAT
 62
     7
100
AcDbBlockReference
  2
SW_NOTE_1
 10
2.4173866861
 20
0.6725994797
 30
0.0
  0
INSERT
  5
222
330
77
100
AcDbEntity
  8
0
  6
Continuous
 62
     7
100
AcDbBlockReference
  2
Block9
 10
0.0
 20
0.0323394931
 30
0.0
  0
ENDBLK
  5
79
330
77
100
AcDbEntity
  8
0
100
AcDbBlockEnd
  0
BLOCK
  5
7B
330
7A
100
AcDbEntity
  8
0
100
AcDbBlockBegin
  2
SW_NOTE_0
 70
     0
 10
0.0
 20
0.0
 30
0.0
  3
SW_NOTE_0
  1

  0
MTEXT
  5
7E
330
7A
100
AcDbEntity
  8
FORMAT
 62
     0
100
AcDbMText
 10
3.1689453125
 20
0.2014168343
 30
0.0
 40
0.15625
 41
0.0
 71
     3
 72
     1
  1
Panel Edge LED With Lip- Details
  7
SLDTEXTSTYLE0
 73
     1
 44
1.0
  0
MTEXT
  5
7F
330
7A
100
AcDbEntity
  8
FORMAT
 62
     0
100
AcDbMText
 10
3.170428729
 20
-0.0462865908
 30
0.0
 40
0.15625
 41
0.0
 71
     3
 72
     1
  1
Available for 1/2", 3/4" & 1" Panels
  7
SLDTEXTSTYLE0
 73
     1
 44
1.0
  0
MTEXT
  5
80
330
7A
100
AcDbEntity
  8
FORMAT
 62
     0
100
AcDbMText
 10
3.1872107828
 20
-0.2939899977
 30
0.0
 40
0.15625
 41
0.0
 71
     3
 72
     1
  1
Custom Anodized and Powder Coated Finishes Available
  7
SLDTEXTSTYLE0
 73
     1
 44
1.0
  0
MTEXT
  5
81
330
7A
100
AcDbEntity
  8
FORMAT
 62
     0
100
AcDbMText
 10
3.1430846828
 20
-0.5416934045
 30
0.0
 40
0.15625
 41
0.0
 71
     3
 72
     1
  1
DWPanels.com
  7
SLDTEXTSTYLE0
 73
     1
 44
1.0
  0
ENDBLK
  5
7C
330
7A
100
AcDbEntity
  8
0
100
AcDbBlockEnd
  0
BLOCK
  5
84
330
83
100
AcDbEntity
  8
0
100
AcDbBlockBegin
  2
SW_NOTE_1
 70
     0
 10
0.0
 20
0.0
 30
0.0
  3
SW_NOTE_1
  1

  0
MTEXT
  5
86
330
83
100
AcDbEntity
  8
FORMAT
 62
     0
100
AcDbMText
 10
0.0
 20
0.2417002012
 30
0.0
 40
0.1875
 41
0.0
 71
     1
 72
     1
  1
Decorative
  7
SLDTEXTSTYLE0
 73
     1
 44
1.0
  0
MTEXT
  5
87
330
83
100
AcDbEntity
  8
FORMAT
 62
     0
100
AcDbMText
 10
0.0
 20
-0.047669881
 30
0.0
 40
0.1875
 41
0.0
 71
     1
 72
     1
  1
Wall
  7
SLDTEXTSTYLE0
 73
     1
 44
1.0
  0
MTEXT
  5
88
330
83
100
AcDbEntity
  8
FORMAT
 62
     0
100
AcDbMText
 10
0.0
 20
-0.3370399631
 30
0.0
 40
0.1875
 41
0.0
 71
     1
 72
     1
  1
Panels     Systems
  7
SLDTEXTSTYLE0
 73
     1
 44
1.0
  0
ENDBLK
  5
85
330
83
100
AcDbEntity
  8
0
100
AcDbBlockEnd
  0
BLOCK
  5
8B
330
8A
100
AcDbEntity
  8
0
100
AcDbBlockBegin
  2
Block9
 70
     0
 10
0.0
 20
0.0
 30
0.0
  3
Block9
  1

  0
LINE
  5
8D
330
8A
100
AcDbEntity
  8
0
  6
Continuous
 62
     7
370
    18
100
AcDbLine
 10
0.0
 20
1.039171875
 30
0.0
 11
15.4944999933
 21
1.039171875
 31
0.0
  0
SPLINE
  5
8E
330
8A
100
AcDbEntity
  8
0
  6
Continuous
 62
     8
370
     0
100
AcDbSpline
210
0.0
220
0.0
230
1.0
 70
    24
 71
     3
 72
     8
 73
     4
 74
     0
 42
0.000000001
 43
0.00000001
 40
37.0
 40
37.0
 40
37.0
 40
37.0
 40
38.0
 40
38.0
 40
38.0
 40
38.0
 10
1.771964220772605
 20
0.0264862735488503
 30
0.0
 10
1.771964220772605
 20
0.1159242183039175
 30
0.0
 10
1.771964220772605
 20
0.2037081062473845
 30
0.0
 10
1.771964220772605
 20
0.2944888147063214
 30
0.0
  0
SPLINE
  5
8F
330
8A
100
AcDbEntity
  8
0
  6
Continuous
 62
     8
370
     0
100
AcDbSpline
210
0.0
220
0.0
230
1.0
 70
    24
 71
     3
 72
     8
 73
     4
 74
     0
 42
0.000000001
 43
0.00000001
 40
36.0
 40
36.0
 40
36.0
 40
36.0
 40
37.0
 40
37.0
 40
37.0
 40
37.0
 10
1.624299249855472
 20
0.0264862735488503
 30
0.0
 10
1.674864746341027
 20
0.0264862735488503
 30
0.0
 10
1.722299791426324
 20
0.0264862735488503
 30
0.0
 10
1.771964220772605
 20
0.0264862735488503
 30
0.0
  0
SPLINE
  5
90
330
8A
100
AcDbEntity
  8
0
  6
Continuous
 62
     8
370
     0
100
AcDbSpline
210
0.0
220
0.0
230
1.0
 70
    24
 71
     3
 72
     8
 73
     4
 74
     0
 42
0.000000001
 43
0.00000001
 40
35.0
 40
35.0
 40
35.0
 40
35.0
 40
36.0
 40
36.0
 40
36.0
 40
36.0
 10
1.624299249855472
 20
0.3947778716284157
 30
0.0
 10
1.624299249855472
 20
0.2719112658129299
 30
0.0
 10
1.624299249855472
 20
0.1490446215756984
 30
0.0
 10
1.624299249855472
 20
0.0264862735488503
 30
0.0
  0
SPLINE
  5
91
330
8A
100
AcDbEntity
  8
0
  6
Continuous
 62
     8
370
     0
100
AcDbSpline
210
0.0
220
0.0
230
1.0
 70
     8
 71
     3
 72
     8
 73
     4
 74
     0
 42
0.000000001
 43
0.00000001
 40
34.0
 40
34.0
 40
34.0
 40
34.0
 40
35.0
 40
35.0
 40
35.0
 40
35.0
 10
1.617341837371248
 20
0.3961420746749176
 30
0.0
 10
1.619660974865984
 20
0.3956873147115886
 30
0.0
 10
1.621980112360718
 20
0.3952325931699642
 30
0.0
 10
1.624299249855472
 20
0.3947778716284157
 30
0.0
  0
SPLINE
  5
92
330
8A
100
AcDbEntity
  8
0
  6
Continuous
 62
     8
370
     0
100
AcDbSpline
210
0.0
220
0.0
230
1.0
 70
     8
 71
     3
 72
     8
 73
     4
 74
     0
 42
0.000000001
 43
0.00000001
 40
33.0
 40
33.0
 40
33.0
 40
33.0
 40
34.0
 40
34.0
 40
34.0
 40
34.0
 10
1.487154618164736
 20
0.02098166469205
 30
0.0
 10
1.530882578060469
 20
0.1469925921635305
 30
0.0
 10
1.574112284559385
 20
0.2715673142083528
 30
0.0
 10
1.617341837371248
 20
0.3961420746749176
 30
0.0
  0
SPLINE
  5
93
330
8A
100
AcDbEntity
  8
0
  6
Continuous
 62
     8
370
     0
100
AcDbSpline
210
0.0
220
0.0
230
1.0
 70
    24
 71
     3
 72
     8
 73
     4
 74
     0
 42
0.000000001
 43
0.00000001
 40
32.0
 40
32.0
 40
32.0
 40
32.0
 40
33.0
 40
33.0
 40
33.0
 40
33.0
 10
1.358252530020567
 20
0.02098166469205
 30
0.0
 10
1.403594203878849
 20
0.02098166469205
 30
0.0
 10
1.445210042728163
 20
0.02098166469205
 30
0.0
 10
1.487154618164736
 20
0.02098166469205
 30
0.0
  0
SPLINE
  5
94
330
8A
100
AcDbEntity
  8
0
  6
Continuous
 62
     8
370
     0
100
AcDbSpline
210
0.0
220
0.0
230
1.0
 70
     8
 71
     3
 72
     8
 73
     4
 74
     0
 42
0.000000001
 43
0.00000001
 40
31.0
 40
31.0
 40
31.0
 40
31.0
 40
32.0
 40
32.0
 40
32.0
 40
32.0
 10
1.155931220879272
 20
0.6119791219529866
 30
0.0
 10
1.223562895171523
 20
0.4144211890550427
 30
0.0
 10
1.291194723150807
 20
0.2168631793135314
 30
0.0
 10
1.358252530020567
 20
0.02098166469205
 30
0.0
  0
SPLINE
  5
95
330
8A
100
AcDbEntity
  8
0
  6
Continuous
 62
     8
370
     0
100
AcDbSpline
210
0.0
220
0.0
230
1.0
 70
     8
 71
     3
 72
     8
 73
     4
 74
     0
 42
0.000000001
 43
0.00000001
 40
30.0
 40
30.0
 40
30.0
 40
30.0
 40
31.0
 40
31.0
 40
31.0
 40
31.0
 10
1.150680349332222
 20
0.6124822549134179
 30
0.0
 10
1.15243069107691
 20
0.6123145439266341
 30
0.0
 10
1.154180879134584
 20
0.6121468329397722
 30
0.0
 10
1.155931220879272
 20
0.6119791219529866
 30
0.0
  0
SPLINE
  5
96
330
8A
100
AcDbEntity
  8
0
  6
Continuous
 62
     8
370
     0
100
AcDbSpline
210
0.0
220
0.0
230
1.0
 70
     8
 71
     3
 72
     8
 73
     4
 74
     0
 42
0.000000001
 43
0.00000001
 40
29.0
 40
29.0
 40
29.0
 40
29.0
 40
30.0
 40
30.0
 40
30.0
 40
30.0
 10
0.9481694672220798
 20
0.0208614814236237
 30
0.0
 10
1.015951985348072
 20
0.2188830881334553
 30
0.0
 10
1.083316244183653
 20
0.4156826523125666
 30
0.0
 10
1.150680349332222
 20
0.6124822549134179
 30
0.0
  0
SPLINE
  5
97
330
8A
100
AcDbEntity
  8
0
  6
Continuous
 62
     8
370
     0
100
AcDbSpline
210
0.0
220
0.0
230
1.0
 70
    24
 71
     3
 72
     8
 73
     4
 74
     0
 42
0.000000001
 43
0.00000001
 40
28.0
 40
28.0
 40
28.0
 40
28.0
 40
29.0
 40
29.0
 40
29.0
 40
29.0
 10
0.8194283662565629
 20
0.0208614814236237
 30
0.0
 10
0.864205624445552
 20
0.0208614814236237
 30
0.0
 10
0.9058301466128856
 20
0.0208614814236237
 30
0.0
 10
0.9481694672220798
 20
0.0208614814236237
 30
0.0
  0
SPLINE
  5
98
330
8A
100
AcDbEntity
  8
0
  6
Continuous
 62
     8
370
     0
100
AcDbSpline
210
0.0
220
0.0
230
1.0
 70
     8
 71
     3
 72
     8
 73
     4
 74
     0
 42
0.000000001
 43
0.00000001
 40
27.0
 40
27.0
 40
27.0
 40
27.0
 40
28.0
 40
28.0
 40
28.0
 40
28.0
 10
0.6940132066113596
 20
0.3815594795001297
 30
0.0
 10
0.7359666190529646
 20
0.260900280698354
 30
0.0
 10
0.7779199546510239
 20
0.1402411203183612
 30
0.0
 10
0.8194283662565629
 20
0.0208614814236237
 30
0.0
  0
SPLINE
  5
99
330
8A
100
AcDbEntity
  8
0
  6
Continuous
 62
     8
370
     0
100
AcDbSpline
210
0.0
220
0.0
230
1.0
 70
     8
 71
     3
 72
     8
 73
     4
 74
     0
 42
0.000000001
 43
0.00000001
 40
26.0
 40
26.0
 40
26.0
 40
26.0
 40
27.0
 40
27.0
 40
27.0
 40
27.0
 10
0.690171798945296
 20
0.3810893508323517
 30
0.0
 10
0.6914522425528219
 20
0.3812460731955374
 30
0.0
 10
0.6927327630038549
 20
0.3814027571369421
 30
0.0
 10
0.6940132066113596
 20
0.3815594795001297
 30
0.0
  0
SPLINE
  5
9A
330
8A
100
AcDbEntity
  8
0
  6
Continuous
 62
     8
370
     0
100
AcDbSpline
210
0.0
220
0.0
230
1.0
 70
    24
 71
     3
 72
     8
 73
     4
 74
     0
 42
0.000000001
 43
0.00000001
 40
25.0
 40
25.0
 40
25.0
 40
25.0
 40
26.0
 40
26.0
 40
26.0
 40
26.0
 10
0.690171798945296
 20
0.0267215684133154
 30
0.0
 10
0.690171798945296
 20
0.1463832230338764
 30
0.0
 10
0.690171798945296
 20
0.2637362677222606
 30
0.0
 10
0.690171798945296
 20
0.3810893508323517
 30
0.0
  0
SPLINE
  5
9B
330
8A
100
AcDbEntity
  8
0
  6
Continuous
 62
     8
370
     0
100
AcDbSpline
210
0.0
220
0.0
230
1.0
 70
     8
 71
     3
 72
     8
 73
     4
 74
     0
 42
0.000000001
 43
0.00000001
 40
24.0
 40
24.0
 40
24.0
 40
24.0
 40
25.0
 40
25.0
 40
25.0
 40
25.0
 10
0.6665367295018015
 20
0.0248740964567577
 30
0.0
 10
0.673688940314331
 20
0.0248805513126075
 30
0.0
 10
0.6808401521610634
 20
0.0259625081027092
 30
0.0
 10
0.690171798945296
 20
0.0267215684133154
 30
0.0
  0
SPLINE
  5
9C
330
8A
100
AcDbEntity
  8
0
  6
Continuous
 62
     8
370
     0
100
AcDbSpline
210
0.0
220
0.0
230
1.0
 70
     8
 71
     3
 72
     8
 73
     4
 74
     0
 42
0.000000001
 43
0.00000001
 40
23.0
 40
23.0
 40
23.0
 40
23.0
 40
24.0
 40
24.0
 40
24.0
 40
24.0
 10
0.3493110713449961
 20
0.0249956629086091
 30
0.0
 10
0.4550504471755414
 20
0.0244442337945254
 30
0.0
 10
0.5607945873044473
 20
0.0247788873329534
 30
0.0
 10
0.6665367295018015
 20
0.0248740964567577
 30
0.0
  0
SPLINE
  5
9D
330
8A
100
AcDbEntity
  8
0
  6
Continuous
 62
     8
370
     0
100
AcDbSpline
210
0.0
220
0.0
230
1.0
 70
     8
 71
     3
 72
     8
 73
     4
 74
     0
 42
0.000000001
 43
0.00000001
 40
22.0
 40
22.0
 40
22.0
 40
22.0
 40
23.0
 40
23.0
 40
23.0
 40
23.0
 10
0.1884951769118723
 20
0.0601667124091723
 30
0.0
 10
0.2390193315826015
 20
0.0351846528680666
 30
0.0
 10
0.2933691794191386
 20
0.0252873609182086
 30
0.0
 10
0.3493110713449961
 20
0.0249956629086091
 30
0.0
  0
SPLINE
  5
9E
330
8A
100
AcDbEntity
  8
0
  6
Continuous
 62
     8
370
     0
100
AcDbSpline
210
0.0
220
0.0
230
1.0
 70
     8
 71
     3
 72
     8
 73
     4
 74
     0
 42
0.000000001
 43
0.00000001
 40
21.0
 40
21.0
 40
21.0
 40
21.0
 40
22.0
 40
22.0
 40
22.0
 40
22.0
 10
0.0397213155501118
 20
0.285635442003188
 30
0.0
 10
0.0464532307189517
 20
0.1826565160143632
 30
0.0
 10
0.0952553604828298
 20
0.1062695981966055
 30
0.0
 10
0.1884951769118723
 20
0.0601667124091723
 30
0.0
  0
SPLINE
  5
9F
330
8A
100
AcDbEntity
  8
0
  6
Continuous
 62
     8
370
     0
100
AcDbSpline
210
0.0
220
0.0
230
1.0
 70
     8
 71
     3
 72
    11
 73
     7
 74
     0
 42
0.000000001
 43
0.00000001
 40
19.0
 40
19.0
 40
19.0
 40
19.0
 40
20.0
 40
20.0
 40
20.0
 40
21.0
 40
21.0
 40
21.0
 40
21.0
 10
0.3734456236816819
 20
0.5938796293056314
 30
0.0
 10
0.3392457226124493
 20
0.5927894118368822
 30
0.0
 10
0.3044681119446659
 20
0.5904522161144544
 30
0.0
 10
0.2711936758329829
 20
0.5830685141918284
 30
0.0
 10
0.130182662331542
 20
0.5517777167577067
 30
0.0
 10
0.0288964838676611
 20
0.451223703371688
 30
0.0
 10
0.0397213155501118
 20
0.285635442003188
 30
0.0
  0
SPLINE
  5
A0
330
8A
100
AcDbEntity
  8
0
  6
Continuous
 62
     8
370
     0
100
AcDbSpline
210
0.0
220
0.0
230
1.0
 70
     8
 71
     3
 72
     8
 73
     4
 74
     0
 42
0.000000001
 43
0.00000001
 40
18.0
 40
18.0
 40
18.0
 40
18.0
 40
19.0
 40
19.0
 40
19.0
 40
19.0
 10
0.5404106135908139
 20
0.5943418430906087
 30
0.0
 10
0.4822031825268198
 20
0.5943418430906087
 30
0.0
 10
0.4277765295900185
 20
0.595611528605035
 30
0.0
 10
0.3734456236816819
 20
0.5938796293056314
 30
0.0
  0
SPLINE
  5
A1
330
8A
100
AcDbEntity
  8
0
  6
Continuous
 62
     8
370
     0
100
AcDbSpline
210
0.0
220
0.0
230
1.0
 70
    24
 71
     3
 72
    11
 73
     7
 74
     0
 42
0.000000001
 43
0.00000001
 40
16.0
 40
16.0
 40
16.0
 40
16.0
 40
17.0
 40
17.0
 40
17.0
 40
18.0
 40
18.0
 40
18.0
 40
18.0
 10
0.5404106135908139
 20
0.8636909324954444
 30
0.0
 10
0.5404106135908139
 20
0.817356728495797
 30
0.0
 10
0.5404106135908139
 20
0.7730567262112387
 30
0.0
 10
0.5404106135908139
 20
0.7287567239266802
 30
0.0
 10
0.5404106135908139
 20
0.6846439124617284
 30
0.0
 10
0.5404106135908139
 20
0.6405311009968171
 30
0.0
 10
0.5404106135908139
 20
0.5943418430906087
 30
0.0
  0
SPLINE
  5
A2
330
8A
100
AcDbEntity
  8
0
  6
Continuous
 62
     8
370
     0
100
AcDbSpline
210
0.0
220
0.0
230
1.0
 70
    24
 71
     3
 72
     8
 73
     4
 74
     0
 42
0.000000001
 43
0.00000001
 40
15.0
 40
15.0
 40
15.0
 40
15.0
 40
16.0
 40
16.0
 40
16.0
 40
16.0
 10
0.6877511511579565
 20
0.8636909324954444
 30
0.0
 10
0.637656013870717
 20
0.8636909324954444
 30
0.0
 10
0.5894939522235331
 20
0.8636909324954444
 30
0.0
 10
0.5404106135908139
 20
0.8636909324954444
 30
0.0
  0
SPLINE
  5
A3
330
8A
100
AcDbEntity
  8
0
  6
Continuous
 62
     8
370
     0
100
AcDbSpline
210
0.0
220
0.0
230
1.0
 70
     8
 71
     3
 72
     8
 73
     4
 74
     0
 42
0.000000001
 43
0.00000001
 40
14.0
 40
14.0
 40
14.0
 40
14.0
 40
15.0
 40
15.0
 40
15.0
 40
15.0
 10
0.8851058329401726
 20
0.2508072682978802
 30
0.0
 10
0.8192265751677246
 20
0.4553947313254969
 30
0.0
 10
0.7533473942387846
 20
0.6599822519857083
 30
0.0
 10
0.6877511511579565
 20
0.8636909324954444
 30
0.0
  0
SPLINE
  5
A4
330
8A
100
AcDbEntity
  8
0
  6
Continuous
 62
     8
370
     0
100
AcDbSpline
210
0.0
220
0.0
230
1.0
 70
     8
 71
     3
 72
     8
 73
     4
 74
     0
 42
0.000000001
 43
0.00000001
 40
13.0
 40
13.0
 40
13.0
 40
13.0
 40
14.0
 40
14.0
 40
14.0
 40
14.0
 10
0.8895201859064792
 20
0.2506737911001599
 30
0.0
 10
0.8880487093031957
 20
0.2507182834993876
 30
0.0
 10
0.8865772326999297
 20
0.2507627758986534
 30
0.0
 10
0.8851058329401726
 20
0.2508072682978802
 30
0.0
  0
SPLINE
  5
A5
330
8A
100
AcDbEntity
  8
0
  6
Continuous
 62
     8
370
     0
100
AcDbSpline
210
0.0
220
0.0
230
1.0
 70
     8
 71
     3
 72
     8
 73
     4
 74
     0
 42
0.000000001
 43
0.00000001
 40
12.0
 40
12.0
 40
12.0
 40
12.0
 40
13.0
 40
13.0
 40
13.0
 40
13.0
 10
1.092528091917066
 20
0.8650559423989477
 30
0.0
 10
1.024666348119865
 20
0.6596796037742149
 30
0.0
 10
0.9570933054349351
 20
0.4551767262535064
 30
0.0
 10
0.8895201859064792
 20
0.2506737911001599
 30
0.0
  0
SPLINE
  5
A6
330
8A
100
AcDbEntity
  8
0
  6
Continuous
 62
     8
370
     0
100
AcDbSpline
210
0.0
220
0.0
230
1.0
 70
    24
 71
     3
 72
     8
 73
     4
 74
     0
 42
0.000000001
 43
0.00000001
 40
11.0
 40
11.0
 40
11.0
 40
11.0
 40
12.0
 40
12.0
 40
12.0
 40
12.0
 10
1.218661200588547
 20
0.8650559423989477
 30
0.0
 10
1.175041743745911
 20
0.8650559423989477
 30
0.0
 10
1.134162373211665
 20
0.8650559423989477
 30
0.0
 10
1.092528091917066
 20
0.8650559423989477
 30
0.0
  0
SPLINE
  5
A7
330
8A
100
AcDbEntity
  8
0
  6
Continuous
 62
     8
370
     0
100
AcDbSpline
210
0.0
220
0.0
230
1.0
 70
     8
 71
     3
 72
     8
 73
     4
 74
     0
 42
0.000000001
 43
0.00000001
 40
10.0
 40
10.0
 40
10.0
 40
10.0
 40
11.0
 40
11.0
 40
11.0
 40
11.0
 10
1.421478457821005
 20
0.2512611061389791
 30
0.0
 10
1.353791763566985
 20
0.4561043044078963
 30
0.0
 10
1.286105069312947
 20
0.6609474834658856
 30
0.0
 10
1.218661200588547
 20
0.8650559423989477
 30
0.0
  0
SPLINE
  5
A8
330
8A
100
AcDbEntity
  8
0
  6
Continuous
 62
     8
370
     0
100
AcDbSpline
210
0.0
220
0.0
230
1.0
 70
     8
 71
     3
 72
     8
 73
     4
 74
     0
 42
0.000000001
 43
0.00000001
 40
9.0
 40
9.0
 40
9.0
 40
9.0
 40
10.0
 40
10.0
 40
10.0
 40
10.0
 10
1.426048649449934
 20
0.2506702562981322
 30
0.0
 10
1.424525303469321
 20
0.2508672062450424
 30
0.0
 10
1.423001803801637
 20
0.2510641561920307
 30
0.0
 10
1.421478457821005
 20
0.2512611061389791
 30
0.0
  0
SPLINE
  5
A9
330
8A
100
AcDbEntity
  8
0
  6
Continuous
 62
     8
370
     0
100
AcDbSpline
210
0.0
220
0.0
230
1.0
 70
     8
 71
     3
 72
     8
 73
     4
 74
     0
 42
0.000000001
 43
0.00000001
 40
8.0
 40
8.0
 40
8.0
 40
8.0
 40
9.0
 40
9.0
 40
9.0
 40
9.0
 10
1.62417491703683
 20
0.8659516497025636
 30
0.0
 10
1.557698200880634
 20
0.6595079353460304
 30
0.0
 10
1.491873425165274
 20
0.4550891246383989
 30
0.0
 10
1.426048649449934
 20
0.2506702562981322
 30
0.0
  0
SPLINE
  5
AA
330
8A
100
AcDbEntity
  8
0
  6
Continuous
 62
     8
370
     0
100
AcDbSpline
210
0.0
220
0.0
230
1.0
 70
     8
 71
     3
 72
     8
 73
     4
 74
     0
 42
0.000000001
 43
0.00000001
 40
7.0
 40
7.0
 40
7.0
 40
7.0
 40
8.0
 40
8.0
 40
8.0
 40
8.0
 10
1.649295986509273
 20
0.8659472696217902
 30
0.0
 10
1.641065123178055
 20
0.8659804083906446
 30
0.0
 10
1.632834106159786
 20
0.8659516497025636
 30
0.0
 10
1.62417491703683
 20
0.8659516497025636
 30
0.0
  0
SPLINE
  5
AB
330
8A
100
AcDbEntity
  8
0
  6
Continuous
 62
     8
370
     0
100
AcDbSpline
210
0.0
220
0.0
230
1.0
 70
     8
 71
     3
 72
     8
 73
     4
 74
     0
 42
0.000000001
 43
0.00000001
 40
6.0
 40
6.0
 40
6.0
 40
6.0
 40
7.0
 40
7.0
 40
7.0
 40
7.0
 10
1.946341536816341
 20
0.8646261853965559
 30
0.0
 10
1.847328658686307
 20
0.8653779455725679
 30
0.0
 10
1.748311477319045
 20
0.8655485381914314
 30
0.0
 10
1.649295986509273
 20
0.8659472696217902
 30
0.0
  0
SPLINE
  5
AC
330
8A
100
AcDbEntity
  8
0
  6
Continuous
 62
     8
370
     0
100
AcDbSpline
210
0.0
220
0.0
230
1.0
 70
     8
 71
     3
 72
     8
 73
     4
 74
     0
 42
0.000000001
 43
0.00000001
 40
5.0
 40
5.0
 40
5.0
 40
5.0
 40
6.0
 40
6.0
 40
6.0
 40
6.0
 10
2.075548693742947
 20
0.8474146580679591
 30
0.0
 10
2.033357296913632
 20
0.8602345877182456
 30
0.0
 10
1.990056894374456
 20
0.8642942790140489
 30
0.0
 10
1.946341536816341
 20
0.8646261853965559
 30
0.0
  0
SPLINE
  5
AD
330
8A
100
AcDbEntity
  8
0
  6
Continuous
 62
     8
370
     0
100
AcDbSpline
210
0.0
220
0.0
230
1.0
 70
     8
 71
     3
 72
     8
 73
     4
 74
     0
 42
0.000000001
 43
0.00000001
 40
4.0
 40
4.0
 40
4.0
 40
4.0
 40
5.0
 40
5.0
 40
5.0
 40
5.0
 10
2.272852428270046
 20
0.571897195068549
 30
0.0
 10
2.277550026458512
 20
0.7064368889952508
 30
0.0
 10
2.204501498611656
 20
0.8082320021054833
 30
0.0
 10
2.075548693742947
 20
0.8474146580679591
 30
0.0
  0
SPLINE
  5
AE
330
8A
100
AcDbEntity
  8
0
  6
Continuous
 62
     8
370
     0
100
AcDbSpline
210
0.0
220
0.0
230
1.0
 70
     8
 71
     3
 72
     8
 73
     4
 74
     0
 42
0.000000001
 43
0.00000001
 40
3.0
 40
3.0
 40
3.0
 40
3.0
 40
4.0
 40
4.0
 40
4.0
 40
4.0
 10
2.046848406701573
 20
0.3076007017130627
 30
0.0
 10
2.186100087766244
 20
0.3388160388086005
 30
0.0
 10
2.268118252565098
 20
0.4363269334570884
 30
0.0
 10
2.272852428270046
 20
0.571897195068549
 30
0.0
  0
SPLINE
  5
AF
330
8A
100
AcDbEntity
  8
0
  6
Continuous
 62
     8
370
     0
100
AcDbSpline
210
0.0
220
0.0
230
1.0
 70
     8
 71
     3
 72
     8
 73
     4
 74
     0
 42
0.000000001
 43
0.00000001
 40
2.0
 40
2.0
 40
2.0
 40
2.0
 40
3.0
 40
3.0
 40
3.0
 40
3.0
 10
1.929668644155394
 20
0.2949715457116981
 30
0.0
 10
1.968879588139407
 20
0.2968527519744235
 30
0.0
 10
2.0087320218453
 20
0.2990563936555297
 30
0.0
 10
2.046848406701573
 20
0.3076007017130627
 30
0.0
  0
SPLINE
  5
B0
330
8A
100
AcDbEntity
  8
0
  6
Continuous
 62
     8
370
     0
100
AcDbSpline
210
0.0
220
0.0
230
1.0
 70
     8
 71
     3
 72
     8
 73
     4
 74
     0
 42
0.000000001
 43
0.00000001
 40
1.0
 40
1.0
 40
1.0
 40
1.0
 40
2.0
 40
2.0
 40
2.0
 40
2.0
 10
1.798772466614648
 20
0.2944888915498468
 30
0.0
 10
1.842412210147108
 20
0.294490505263809
 30
0.0
 10
1.886128950888609
 20
0.2928825545654005
 30
0.0
 10
1.929668644155394
 20
0.2949715457116981
 30
0.0
  0
SPLINE
  5
B1
330
8A
100
AcDbEntity
  8
0
  6
Continuous
 62
     8
370
     0
100
AcDbSpline
210
0.0
220
0.0
230
1.0
 70
     8
 71
     3
 72
     8
 73
     4
 74
     0
 42
0.000000001
 43
0.00000001
 40
0.0
 40
0.0
 40
0.0
 40
0.0
 40
1.0
 40
1.0
 40
1.0
 40
1.0
 10
1.771964220772605
 20
0.2944888147063214
 30
0.0
 10
1.782407870164083
 20
0.2944888147063214
 30
0.0
 10
1.790590168389365
 20
0.2944885841757452
 30
0.0
 10
1.798772466614648
 20
0.2944888915498468
 30
0.0
  0
SPLINE
  5
B2
330
8A
100
AcDbEntity
  8
0
  6
Continuous
 62
     8
370
     0
100
AcDbSpline
210
0.0
220
0.0
230
1.0
 70
     8
 71
     3
 72
     8
 73
     4
 74
     0
 42
0.000000001
 43
0.00000001
 40
37.0
 40
37.0
 40
37.0
 40
37.0
 40
38.0
 40
38.0
 40
38.0
 40
38.0
 10
1.798772466614648
 20
0.2944888915498468
 30
0.0
 10
1.790590168389365
 20
0.2944885841757452
 30
0.0
 10
1.782407870164083
 20
0.2944888147063214
 30
0.0
 10
1.771964220772605
 20
0.2944888147063214
 30
0.0
  0
SPLINE
  5
B3
330
8A
100
AcDbEntity
  8
0
  6
Continuous
 62
     8
370
     0
100
AcDbSpline
210
0.0
220
0.0
230
1.0
 70
     8
 71
     3
 72
     8
 73
     4
 74
     0
 42
0.000000001
 43
0.00000001
 40
36.0
 40
36.0
 40
36.0
 40
36.0
 40
37.0
 40
37.0
 40
37.0
 40
37.0
 10
1.929668644155394
 20
0.2949715457116981
 30
0.0
 10
1.886128950888609
 20
0.2928825545654005
 30
0.0
 10
1.842412210147108
 20
0.294490505263809
 30
0.0
 10
1.798772466614648
 20
0.2944888915498468
 30
0.0
  0
SPLINE
  5
B4
330
8A
100
AcDbEntity
  8
0
  6
Continuous
 62
     8
370
     0
100
AcDbSpline
210
0.0
220
0.0
230
1.0
 70
     8
 71
     3
 72
     8
 73
     4
 74
     0
 42
0.000000001
 43
0.00000001
 40
35.0
 40
35.0
 40
35.0
 40
35.0
 40
36.0
 40
36.0
 40
36.0
 40
36.0
 10
2.046848406701573
 20
0.3076007017130627
 30
0.0
 10
2.0087320218453
 20
0.2990563936555297
 30
0.0
 10
1.968879588139407
 20
0.2968527519744235
 30
0.0
 10
1.929668644155394
 20
0.2949715457116981
 30
0.0
  0
SPLINE
  5
B5
330
8A
100
AcDbEntity
  8
0
  6
Continuous
 62
     8
370
     0
100
AcDbSpline
210
0.0
220
0.0
230
1.0
 70
     8
 71
     3
 72
     8
 73
     4
 74
     0
 42
0.000000001
 43
0.00000001
 40
34.0
 40
34.0
 40
34.0
 40
34.0
 40
35.0
 40
35.0
 40
35.0
 40
35.0
 10
2.272852428270046
 20
0.571897195068549
 30
0.0
 10
2.268118252565098
 20
0.4363269334570884
 30
0.0
 10
2.186100087766244
 20
0.3388160388086005
 30
0.0
 10
2.046848406701573
 20
0.3076007017130627
 30
0.0
  0
SPLINE
  5
B6
330
8A
100
AcDbEntity
  8
0
  6
Continuous
 62
     8
370
     0
100
AcDbSpline
210
0.0
220
0.0
230
1.0
 70
     8
 71
     3
 72
     8
 73
     4
 74
     0
 42
0.000000001
 43
0.00000001
 40
33.0
 40
33.0
 40
33.0
 40
33.0
 40
34.0
 40
34.0
 40
34.0
 40
34.0
 10
2.075548693742947
 20
0.8474146580679591
 30
0.0
 10
2.204501498611656
 20
0.8082320021054833
 30
0.0
 10
2.277550026458512
 20
0.7064368889952508
 30
0.0
 10
2.272852428270046
 20
0.571897195068549
 30
0.0
  0
SPLINE
  5
B7
330
8A
100
AcDbEntity
  8
0
  6
Continuous
 62
     8
370
     0
100
AcDbSpline
210
0.0
220
0.0
230
1.0
 70
     8
 71
     3
 72
     8
 73
     4
 74
     0
 42
0.000000001
 43
0.00000001
 40
32.0
 40
32.0
 40
32.0
 40
32.0
 40
33.0
 40
33.0
 40
33.0
 40
33.0
 10
1.946341536816341
 20
0.8646261853965559
 30
0.0
 10
1.990056894374456
 20
0.8642942790140489
 30
0.0
 10
2.033357296913632
 20
0.8602345877182456
 30
0.0
 10
2.075548693742947
 20
0.8474146580679591
 30
0.0
  0
SPLINE
  5
B8
330
8A
100
AcDbEntity
  8
0
  6
Continuous
 62
     8
370
     0
100
AcDbSpline
210
0.0
220
0.0
230
1.0
 70
     8
 71
     3
 72
     8
 73
     4
 74
     0
 42
0.000000001
 43
0.00000001
 40
31.0
 40
31.0
 40
31.0
 40
31.0
 40
32.0
 40
32.0
 40
32.0
 40
32.0
 10
1.649295986509273
 20
0.8659472696217902
 30
0.0
 10
1.748311477319045
 20
0.8655485381914314
 30
0.0
 10
1.847328658686307
 20
0.8653779455725679
 30
0.0
 10
1.946341536816341
 20
0.8646261853965559
 30
0.0
  0
SPLINE
  5
B9
330
8A
100
AcDbEntity
  8
0
  6
Continuous
 62
     8
370
     0
100
AcDbSpline
210
0.0
220
0.0
230
1.0
 70
     8
 71
     3
 72
     8
 73
     4
 74
     0
 42
0.000000001
 43
0.00000001
 40
30.0
 40
30.0
 40
30.0
 40
30.0
 40
31.0
 40
31.0
 40
31.0
 40
31.0
 10
1.62417491703683
 20
0.8659516497025636
 30
0.0
 10
1.632834106159786
 20
0.8659516497025636
 30
0.0
 10
1.641065123178055
 20
0.8659804083906446
 30
0.0
 10
1.649295986509273
 20
0.8659472696217902
 30
0.0
  0
SPLINE
  5
BA
330
8A
100
AcDbEntity
  8
0
  6
Continuous
 62
     8
370
     0
100
AcDbSpline
210
0.0
220
0.0
230
1.0
 70
     8
 71
     3
 72
     8
 73
     4
 74
     0
 42
0.000000001
 43
0.00000001
 40
29.0
 40
29.0
 40
29.0
 40
29.0
 40
30.0
 40
30.0
 40
30.0
 40
30.0
 10
1.426048649449934
 20
0.2506702562981322
 30
0.0
 10
1.491873425165274
 20
0.4550891246383989
 30
0.0
 10
1.557698200880634
 20
0.6595079353460304
 30
0.0
 10
1.62417491703683
 20
0.8659516497025636
 30
0.0
  0
SPLINE
  5
BB
330
8A
100
AcDbEntity
  8
0
  6
Continuous
 62
     8
370
     0
100
AcDbSpline
210
0.0
220
0.0
230
1.0
 70
     8
 71
     3
 72
     8
 73
     4
 74
     0
 42
0.000000001
 43
0.00000001
 40
28.0
 40
28.0
 40
28.0
 40
28.0
 40
29.0
 40
29.0
 40
29.0
 40
29.0
 10
1.421478457821005
 20
0.2512611061389791
 30
0.0
 10
1.423001803801637
 20
0.2510641561920307
 30
0.0
 10
1.424525303469321
 20
0.2508672062450424
 30
0.0
 10
1.426048649449934
 20
0.2506702562981322
 30
0.0
  0
SPLINE
  5
BC
330
8A
100
AcDbEntity
  8
0
  6
Continuous
 62
     8
370
     0
100
AcDbSpline
210
0.0
220
0.0
230
1.0
 70
     8
 71
     3
 72
     8
 73
     4
 74
     0
 42
0.000000001
 43
0.00000001
 40
27.0
 40
27.0
 40
27.0
 40
27.0
 40
28.0
 40
28.0
 40
28.0
 40
28.0
 10
1.218661200588547
 20
0.8650559423989477
 30
0.0
 10
1.286105069312947
 20
0.6609474834658856
 30
0.0
 10
1.353791763566985
 20
0.4561043044078963
 30
0.0
 10
1.421478457821005
 20
0.2512611061389791
 30
0.0
  0
SPLINE
  5
BD
330
8A
100
AcDbEntity
  8
0
  6
Continuous
 62
     8
370
     0
100
AcDbSpline
210
0.0
220
0.0
230
1.0
 70
    24
 71
     3
 72
     8
 73
     4
 74
     0
 42
0.000000001
 43
0.00000001
 40
26.0
 40
26.0
 40
26.0
 40
26.0
 40
27.0
 40
27.0
 40
27.0
 40
27.0
 10
1.092528091917066
 20
0.8650559423989477
 30
0.0
 10
1.134162373211665
 20
0.8650559423989477
 30
0.0
 10
1.175041743745911
 20
0.8650559423989477
 30
0.0
 10
1.218661200588547
 20
0.8650559423989477
 30
0.0
  0
SPLINE
  5
BE
330
8A
100
AcDbEntity
  8
0
  6
Continuous
 62
     8
370
     0
100
AcDbSpline
210
0.0
220
0.0
230
1.0
 70
     8
 71
     3
 72
     8
 73
     4
 74
     0
 42
0.000000001
 43
0.00000001
 40
25.0
 40
25.0
 40
25.0
 40
25.0
 40
26.0
 40
26.0
 40
26.0
 40
26.0
 10
0.8895201859064792
 20
0.2506737911001599
 30
0.0
 10
0.9570933054349351
 20
0.4551767262535064
 30
0.0
 10
1.024666348119865
 20
0.6596796037742149
 30
0.0
 10
1.092528091917066
 20
0.8650559423989477
 30
0.0
  0
SPLINE
  5
BF
330
8A
100
AcDbEntity
  8
0
  6
Continuous
 62
     8
370
     0
100
AcDbSpline
210
0.0
220
0.0
230
1.0
 70
     8
 71
     3
 72
     8
 73
     4
 74
     0
 42
0.000000001
 43
0.00000001
 40
24.0
 40
24.0
 40
24.0
 40
24.0
 40
25.0
 40
25.0
 40
25.0
 40
25.0
 10
0.8851058329401726
 20
0.2508072682978802
 30
0.0
 10
0.8865772326999297
 20
0.2507627758986534
 30
0.0
 10
0.8880487093031957
 20
0.2507182834993876
 30
0.0
 10
0.8895201859064792
 20
0.2506737911001599
 30
0.0
  0
SPLINE
  5
C0
330
8A
100
AcDbEntity
  8
0
  6
Continuous
 62
     8
370
     0
100
AcDbSpline
210
0.0
220
0.0
230
1.0
 70
     8
 71
     3
 72
     8
 73
     4
 74
     0
 42
0.000000001
 43
0.00000001
 40
23.0
 40
23.0
 40
23.0
 40
23.0
 40
24.0
 40
24.0
 40
24.0
 40
24.0
 10
0.6877511511579565
 20
0.8636909324954444
 30
0.0
 10
0.7533473942387846
 20
0.6599822519857083
 30
0.0
 10
0.8192265751677246
 20
0.4553947313254969
 30
0.0
 10
0.8851058329401726
 20
0.2508072682978802
 30
0.0
  0
SPLINE
  5
C1
330
8A
100
AcDbEntity
  8
0
  6
Continuous
 62
     8
370
     0
100
AcDbSpline
210
0.0
220
0.0
230
1.0
 70
    24
 71
     3
 72
     8
 73
     4
 74
     0
 42
0.000000001
 43
0.00000001
 40
22.0
 40
22.0
 40
22.0
 40
22.0
 40
23.0
 40
23.0
 40
23.0
 40
23.0
 10
0.5404106135908139
 20
0.8636909324954444
 30
0.0
 10
0.5894939522235331
 20
0.8636909324954444
 30
0.0
 10
0.637656013870717
 20
0.8636909324954444
 30
0.0
 10
0.6877511511579565
 20
0.8636909324954444
 30
0.0
  0
SPLINE
  5
C2
330
8A
100
AcDbEntity
  8
0
  6
Continuous
 62
     8
370
     0
100
AcDbSpline
210
0.0
220
0.0
230
1.0
 70
    24
 71
     3
 72
    11
 73
     7
 74
     0
 42
0.000000001
 43
0.00000001
 40
20.0
 40
20.0
 40
20.0
 40
20.0
 40
21.0
 40
21.0
 40
21.0
 40
22.0
 40
22.0
 40
22.0
 40
22.0
 10
0.5404106135908139
 20
0.5943418430906087
 30
0.0
 10
0.5404106135908139
 20
0.6405311009968171
 30
0.0
 10
0.5404106135908139
 20
0.6846439124617284
 30
0.0
 10
0.5404106135908139
 20
0.7287567239266802
 30
0.0
 10
0.5404106135908139
 20
0.7730567262112387
 30
0.0
 10
0.5404106135908139
 20
0.817356728495797
 30
0.0
 10
0.5404106135908139
 20
0.8636909324954444
 30
0.0
  0
SPLINE
  5
C3
330
8A
100
AcDbEntity
  8
0
  6
Continuous
 62
     8
370
     0
100
AcDbSpline
210
0.0
220
0.0
230
1.0
 70
     8
 71
     3
 72
     8
 73
     4
 74
     0
 42
0.000000001
 43
0.00000001
 40
19.0
 40
19.0
 40
19.0
 40
19.0
 40
20.0
 40
20.0
 40
20.0
 40
20.0
 10
0.3734456236816819
 20
0.5938796293056314
 30
0.0
 10
0.4277765295900185
 20
0.595611528605035
 30
0.0
 10
0.4822031825268198
 20
0.5943418430906087
 30
0.0
 10
0.5404106135908139
 20
0.5943418430906087
 30
0.0
  0
SPLINE
  5
C4
330
8A
100
AcDbEntity
  8
0
  6
Continuous
 62
     8
370
     0
100
AcDbSpline
210
0.0
220
0.0
230
1.0
 70
     8
 71
     3
 72
    11
 73
     7
 74
     0
 42
0.000000001
 43
0.00000001
 40
17.0
 40
17.0
 40
17.0
 40
17.0
 40
18.0
 40
18.0
 40
18.0
 40
19.0
 40
19.0
 40
19.0
 40
19.0
 10
0.0397213155501118
 20
0.285635442003188
 30
0.0
 10
0.0288964838676611
 20
0.451223703371688
 30
0.0
 10
0.130182662331542
 20
0.5517777167577067
 30
0.0
 10
0.2711936758329829
 20
0.5830685141918284
 30
0.0
 10
0.3044681119446659
 20
0.5904522161144544
 30
0.0
 10
0.3392457226124493
 20
0.5927894118368822
 30
0.0
 10
0.3734456236816819
 20
0.5938796293056314
 30
0.0
  0
SPLINE
  5
C5
330
8A
100
AcDbEntity
  8
0
  6
Continuous
 62
     8
370
     0
100
AcDbSpline
210
0.0
220
0.0
230
1.0
 70
     8
 71
     3
 72
     8
 73
     4
 74
     0
 42
0.000000001
 43
0.00000001
 40
16.0
 40
16.0
 40
16.0
 40
16.0
 40
17.0
 40
17.0
 40
17.0
 40
17.0
 10
0.1884951769118723
 20
0.0601667124091723
 30
0.0
 10
0.0952553604828298
 20
0.1062695981966055
 30
0.0
 10
0.0464532307189517
 20
0.1826565160143632
 30
0.0
 10
0.0397213155501118
 20
0.285635442003188
 30
0.0
  0
SPLINE
  5
C6
330
8A
100
AcDbEntity
  8
0
  6
Continuous
 62
     8
370
     0
100
AcDbSpline
210
0.0
220
0.0
230
1.0
 70
     8
 71
     3
 72
     8
 73
     4
 74
     0
 42
0.000000001
 43
0.00000001
 40
15.0
 40
15.0
 40
15.0
 40
15.0
 40
16.0
 40
16.0
 40
16.0
 40
16.0
 10
0.3493110713449961
 20
0.0249956629086091
 30
0.0
 10
0.2933691794191386
 20
0.0252873609182086
 30
0.0
 10
0.2390193315826015
 20
0.0351846528680666
 30
0.0
 10
0.1884951769118723
 20
0.0601667124091723
 30
0.0
  0
SPLINE
  5
C7
330
8A
100
AcDbEntity
  8
0
  6
Continuous
 62
     8
370
     0
100
AcDbSpline
210
0.0
220
0.0
230
1.0
 70
     8
 71
     3
 72
     8
 73
     4
 74
     0
 42
0.000000001
 43
0.00000001
 40
14.0
 40
14.0
 40
14.0
 40
14.0
 40
15.0
 40
15.0
 40
15.0
 40
15.0
 10
0.6665367295018015
 20
0.0248740964567577
 30
0.0
 10
0.5607945873044473
 20
0.0247788873329534
 30
0.0
 10
0.4550504471755414
 20
0.0244442337945254
 30
0.0
 10
0.3493110713449961
 20
0.0249956629086091
 30
0.0
  0
SPLINE
  5
C8
330
8A
100
AcDbEntity
  8
0
  6
Continuous
 62
     8
370
     0
100
AcDbSpline
210
0.0
220
0.0
230
1.0
 70
     8
 71
     3
 72
     8
 73
     4
 74
     0
 42
0.000000001
 43
0.00000001
 40
13.0
 40
13.0
 40
13.0
 40
13.0
 40
14.0
 40
14.0
 40
14.0
 40
14.0
 10
0.690171798945296
 20
0.0267215684133154
 30
0.0
 10
0.6808401521610634
 20
0.0259625081027092
 30
0.0
 10
0.673688940314331
 20
0.0248805513126075
 30
0.0
 10
0.6665367295018015
 20
0.0248740964567577
 30
0.0
  0
SPLINE
  5
C9
330
8A
100
AcDbEntity
  8
0
  6
Continuous
 62
     8
370
     0
100
AcDbSpline
210
0.0
220
0.0
230
1.0
 70
    24
 71
     3
 72
     8
 73
     4
 74
     0
 42
0.000000001
 43
0.00000001
 40
12.0
 40
12.0
 40
12.0
 40
12.0
 40
13.0
 40
13.0
 40
13.0
 40
13.0
 10
0.690171798945296
 20
0.3810893508323517
 30
0.0
 10
0.690171798945296
 20
0.2637362677222606
 30
0.0
 10
0.690171798945296
 20
0.1463832230338764
 30
0.0
 10
0.690171798945296
 20
0.0267215684133154
 30
0.0
  0
SPLINE
  5
CA
330
8A
100
AcDbEntity
  8
0
  6
Continuous
 62
     8
370
     0
100
AcDbSpline
210
0.0
220
0.0
230
1.0
 70
     8
 71
     3
 72
     8
 73
     4
 74
     0
 42
0.000000001
 43
0.00000001
 40
11.0
 40
11.0
 40
11.0
 40
11.0
 40
12.0
 40
12.0
 40
12.0
 40
12.0
 10
0.6940132066113596
 20
0.3815594795001297
 30
0.0
 10
0.6927327630038549
 20
0.3814027571369421
 30
0.0
 10
0.6914522425528219
 20
0.3812460731955374
 30
0.0
 10
0.690171798945296
 20
0.3810893508323517
 30
0.0
  0
SPLINE
  5
CB
330
8A
100
AcDbEntity
  8
0
  6
Continuous
 62
     8
370
     0
100
AcDbSpline
210
0.0
220
0.0
230
1.0
 70
     8
 71
     3
 72
     8
 73
     4
 74
     0
 42
0.000000001
 43
0.00000001
 40
10.0
 40
10.0
 40
10.0
 40
10.0
 40
11.0
 40
11.0
 40
11.0
 40
11.0
 10
0.8194283662565629
 20
0.0208614814236237
 30
0.0
 10
0.7779199546510239
 20
0.1402411203183612
 30
0.0
 10
0.7359666190529646
 20
0.260900280698354
 30
0.0
 10
0.6940132066113596
 20
0.3815594795001297
 30
0.0
  0
SPLINE
  5
CC
330
8A
100
AcDbEntity
  8
0
  6
Continuous
 62
     8
370
     0
100
AcDbSpline
210
0.0
220
0.0
230
1.0
 70
    24
 71
     3
 72
     8
 73
     4
 74
     0
 42
0.000000001
 43
0.00000001
 40
9.0
 40
9.0
 40
9.0
 40
9.0
 40
10.0
 40
10.0
 40
10.0
 40
10.0
 10
0.9481694672220798
 20
0.0208614814236237
 30
0.0
 10
0.9058301466128856
 20
0.0208614814236237
 30
0.0
 10
0.864205624445552
 20
0.0208614814236237
 30
0.0
 10
0.8194283662565629
 20
0.0208614814236237
 30
0.0
  0
SPLINE
  5
CD
330
8A
100
AcDbEntity
  8
0
  6
Continuous
 62
     8
370
     0
100
AcDbSpline
210
0.0
220
0.0
230
1.0
 70
     8
 71
     3
 72
     8
 73
     4
 74
     0
 42
0.000000001
 43
0.00000001
 40
8.0
 40
8.0
 40
8.0
 40
8.0
 40
9.0
 40
9.0
 40
9.0
 40
9.0
 10
1.150680349332222
 20
0.6124822549134179
 30
0.0
 10
1.083316244183653
 20
0.4156826523125666
 30
0.0
 10
1.015951985348072
 20
0.2188830881334553
 30
0.0
 10
0.9481694672220798
 20
0.0208614814236237
 30
0.0
  0
SPLINE
  5
CE
330
8A
100
AcDbEntity
  8
0
  6
Continuous
 62
     8
370
     0
100
AcDbSpline
210
0.0
220
0.0
230
1.0
 70
     8
 71
     3
 72
     8
 73
     4
 74
     0
 42
0.000000001
 43
0.00000001
 40
7.0
 40
7.0
 40
7.0
 40
7.0
 40
8.0
 40
8.0
 40
8.0
 40
8.0
 10
1.155931220879272
 20
0.6119791219529866
 30
0.0
 10
1.154180879134584
 20
0.6121468329397722
 30
0.0
 10
1.15243069107691
 20
0.6123145439266341
 30
0.0
 10
1.150680349332222
 20
0.6124822549134179
 30
0.0
  0
SPLINE
  5
CF
330
8A
100
AcDbEntity
  8
0
  6
Continuous
 62
     8
370
     0
100
AcDbSpline
210
0.0
220
0.0
230
1.0
 70
     8
 71
     3
 72
     8
 73
     4
 74
     0
 42
0.000000001
 43
0.00000001
 40
6.0
 40
6.0
 40
6.0
 40
6.0
 40
7.0
 40
7.0
 40
7.0
 40
7.0
 10
1.358252530020567
 20
0.02098166469205
 30
0.0
 10
1.291194723150807
 20
0.2168631793135314
 30
0.0
 10
1.223562895171523
 20
0.4144211890550427
 30
0.0
 10
1.155931220879272
 20
0.6119791219529866
 30
0.0
  0
SPLINE
  5
D0
330
8A
100
AcDbEntity
  8
0
  6
Continuous
 62
     8
370
     0
100
AcDbSpline
210
0.0
220
0.0
230
1.0
 70
    24
 71
     3
 72
     8
 73
     4
 74
     0
 42
0.000000001
 43
0.00000001
 40
5.0
 40
5.0
 40
5.0
 40
5.0
 40
6.0
 40
6.0
 40
6.0
 40
6.0
 10
1.487154618164736
 20
0.02098166469205
 30
0.0
 10
1.445210042728163
 20
0.02098166469205
 30
0.0
 10
1.403594203878849
 20
0.02098166469205
 30
0.0
 10
1.358252530020567
 20
0.02098166469205
 30
0.0
  0
SPLINE
  5
D1
330
8A
100
AcDbEntity
  8
0
  6
Continuous
 62
     8
370
     0
100
AcDbSpline
210
0.0
220
0.0
230
1.0
 70
     8
 71
     3
 72
     8
 73
     4
 74
     0
 42
0.000000001
 43
0.00000001
 40
4.0
 40
4.0
 40
4.0
 40
4.0
 40
5.0
 40
5.0
 40
5.0
 40
5.0
 10
1.617341837371248
 20
0.3961420746749176
 30
0.0
 10
1.574112284559385
 20
0.2715673142083528
 30
0.0
 10
1.530882578060469
 20
0.1469925921635305
 30
0.0
 10
1.487154618164736
 20
0.02098166469205
 30
0.0
  0
SPLINE
  5
D2
330
8A
100
AcDbEntity
  8
0
  6
Continuous
 62
     8
370
     0
100
AcDbSpline
210
0.0
220
0.0
230
1.0
 70
     8
 71
     3
 72
     8
 73
     4
 74
     0
 42
0.000000001
 43
0.00000001
 40
3.0
 40
3.0
 40
3.0
 40
3.0
 40
4.0
 40
4.0
 40
4.0
 40
4.0
 10
1.624299249855472
 20
0.3947778716284157
 30
0.0
 10
1.621980112360718
 20
0.3952325931699642
 30
0.0
 10
1.619660974865984
 20
0.3956873147115886
 30
0.0
 10
1.617341837371248
 20
0.3961420746749176
 30
0.0
  0
SPLINE
  5
D3
330
8A
100
AcDbEntity
  8
0
  6
Continuous
 62
     8
370
     0
100
AcDbSpline
210
0.0
220
0.0
230
1.0
 70
    24
 71
     3
 72
     8
 73
     4
 74
     0
 42
0.000000001
 43
0.00000001
 40
2.0
 40
2.0
 40
2.0
 40
2.0
 40
3.0
 40
3.0
 40
3.0
 40
3.0
 10
1.624299249855472
 20
0.0264862735488503
 30
0.0
 10
1.624299249855472
 20
0.1490446215756984
 30
0.0
 10
1.624299249855472
 20
0.2719112658129299
 30
0.0
 10
1.624299249855472
 20
0.3947778716284157
 30
0.0
  0
SPLINE
  5
D4
330
8A
100
AcDbEntity
  8
0
  6
Continuous
 62
     8
370
     0
100
AcDbSpline
210
0.0
220
0.0
230
1.0
 70
    24
 71
     3
 72
     8
 73
     4
 74
     0
 42
0.000000001
 43
0.00000001
 40
1.0
 40
1.0
 40
1.0
 40
1.0
 40
2.0
 40
2.0
 40
2.0
 40
2.0
 10
1.771964220772605
 20
0.0264862735488503
 30
0.0
 10
1.722299791426324
 20
0.0264862735488503
 30
0.0
 10
1.674864746341027
 20
0.0264862735488503
 30
0.0
 10
1.624299249855472
 20
0.0264862735488503
 30
0.0
  0
SPLINE
  5
D5
330
8A
100
AcDbEntity
  8
0
  6
Continuous
 62
     8
370
     0
100
AcDbSpline
210
0.0
220
0.0
230
1.0
 70
    24
 71
     3
 72
     8
 73
     4
 74
     0
 42
0.000000001
 43
0.00000001
 40
0.0
 40
0.0
 40
0.0
 40
0.0
 40
1.0
 40
1.0
 40
1.0
 40
1.0
 10
1.771964220772605
 20
0.2944888147063214
 30
0.0
 10
1.771964220772605
 20
0.2037081062473845
 30
0.0
 10
1.771964220772605
 20
0.1159242183039175
 30
0.0
 10
1.771964220772605
 20
0.0264862735488503
 30
0.0
  0
SPLINE
  5
D6
330
8A
100
AcDbEntity
  8
0
  6
Continuous
 62
     8
370
     0
100
AcDbSpline
210
0.0
220
0.0
230
1.0
 70
    24
 71
     3
 72
     8
 73
     4
 74
     0
 42
0.000000001
 43
0.00000001
 40
7.0
 40
7.0
 40
7.0
 40
7.0
 40
8.0
 40
8.0
 40
8.0
 40
8.0
 10
1.772696693224568
 20
0.72493731271878
 30
0.0
 10
1.772696693224568
 20
0.6274446107741074
 30
0.0
 10
1.772696693224568
 20
0.5294707339053845
 30
0.0
 10
1.772696693224568
 20
0.4292406159646945
 30
0.0
  0
SPLINE
  5
D7
330
8A
100
AcDbEntity
  8
0
  6
Continuous
 62
     8
370
     0
100
AcDbSpline
210
0.0
220
0.0
230
1.0
 70
     8
 71
     3
 72
     8
 73
     4
 74
     0
 42
0.000000001
 43
0.00000001
 40
6.0
 40
6.0
 40
6.0
 40
6.0
 40
7.0
 40
7.0
 40
7.0
 40
7.0
 10
1.7771757484364
 20
0.7284172868789588
 30
0.0
 10
1.77589999228373
 20
0.7284342116647347
 30
0.0
 10
1.774597955646521
 20
0.7264700336090679
 30
0.0
 10
1.772696693224568
 20
0.72493731271878
 30
0.0
  0
SPLINE
  5
D8
330
8A
100
AcDbEntity
  8
0
  6
Continuous
 62
     8
370
     0
100
AcDbSpline
210
0.0
220
0.0
230
1.0
 70
     8
 71
     3
 72
     8
 73
     4
 74
     0
 42
0.000000001
 43
0.00000001
 40
5.0
 40
5.0
 40
5.0
 40
5.0
 40
6.0
 40
6.0
 40
6.0
 40
6.0
 10
1.988237547146977
 20
0.724942864663213
 30
0.0
 10
1.917900058757163
 20
0.726758196816677
 30
0.0
 10
1.847533984577173
 20
0.7274827351749661
 30
0.0
 10
1.7771757484364
 20
0.7284172868789588
 30
0.0
  0
SPLINE
  5
D9
330
8A
100
AcDbEntity
  8
0
  6
Continuous
 62
     8
370
     0
100
AcDbSpline
210
0.0
220
0.0
230
1.0
 70
     8
 71
     3
 72
     8
 73
     4
 74
     0
 42
0.000000001
 43
0.00000001
 40
4.0
 40
4.0
 40
4.0
 40
4.0
 40
5.0
 40
5.0
 40
5.0
 40
5.0
 10
2.024827819655828
 20
0.7166598437914923
 30
0.0
 10
2.012985618163513
 20
0.7205966719010098
 30
0.0
 10
2.000513760851701
 20
0.7246260388219401
 30
0.0
 10
1.988237547146977
 20
0.724942864663213
 30
0.0
  0
SPLINE
  5
DA
330
8A
100
AcDbEntity
  8
0
  6
Continuous
 62
     8
370
     0
100
AcDbSpline
210
0.0
220
0.0
230
1.0
 70
     8
 71
     3
 72
     8
 73
     4
 74
     0
 42
0.000000001
 43
0.00000001
 40
3.0
 40
3.0
 40
3.0
 40
3.0
 40
4.0
 40
4.0
 40
4.0
 40
4.0
 10
2.122229442816038
 20
0.5877238100214116
 30
0.0
 10
2.119482747964745
 20
0.6536512102604237
 30
0.0
 10
2.086392697884135
 20
0.6961935322439563
 30
0.0
 10
2.024827819655828
 20
0.7166598437914923
 30
0.0
  0
SPLINE
  5
DB
330
8A
100
AcDbEntity
  8
0
  6
Continuous
 62
     8
370
     0
100
AcDbSpline
210
0.0
220
0.0
230
1.0
 70
     8
 71
     3
 72
     8
 73
     4
 74
     0
 42
0.000000001
 43
0.00000001
 40
2.0
 40
2.0
 40
2.0
 40
2.0
 40
3.0
 40
3.0
 40
3.0
 40
3.0
 10
2.042908793014375
 20
0.4507722861015534
 30
0.0
 10
2.099434580442348
 20
0.4778377656335913
 30
0.0
 10
2.124799551253694
 20
0.5260290278191184
 30
0.0
 10
2.122229442816038
 20
0.5877238100214116
 30
0.0
  0
SPLINE
  5
DC
330
8A
100
AcDbEntity
  8
0
  6
Continuous
 62
     8
370
     0
100
AcDbSpline
210
0.0
220
0.0
230
1.0
 70
     8
 71
     3
 72
     8
 73
     4
 74
     0
 42
0.000000001
 43
0.00000001
 40
1.0
 40
1.0
 40
1.0
 40
1.0
 40
2.0
 40
2.0
 40
2.0
 40
2.0
 10
1.968538863962737
 20
0.4301953198823512
 30
0.0
 10
1.99368083487319
 20
0.431315045263547
 30
0.0
 10
2.019958245665075
 20
0.4397831245472366
 30
0.0
 10
2.042908793014375
 20
0.4507722861015534
 30
0.0
  0
SPLINE
  5
DD
330
8A
100
AcDbEntity
  8
0
  6
Continuous
 62
     8
370
     0
100
AcDbSpline
210
0.0
220
0.0
230
1.0
 70
     8
 71
     3
 72
     8
 73
     4
 74
     0
 42
0.000000001
 43
0.00000001
 40
0.0
 40
0.0
 40
0.0
 40
0.0
 40
1.0
 40
1.0
 40
1.0
 40
1.0
 10
1.772696693224568
 20
0.4292406159646945
 30
0.0
 10
1.839738209267667
 20
0.4292406159646945
 30
0.0
 10
1.904244811206169
 20
0.427331938142857
 30
0.0
 10
1.968538863962737
 20
0.4301953198823512
 30
0.0
  0
SPLINE
  5
DE
330
8A
100
AcDbEntity
  8
0
  6
Continuous
 62
     8
370
     0
100
AcDbSpline
210
0.0
220
0.0
230
1.0
 70
    24
 71
     3
 72
     8
 73
     4
 74
     0
 42
0.000000001
 43
0.00000001
 40
7.0
 40
7.0
 40
7.0
 40
7.0
 40
8.0
 40
8.0
 40
8.0
 40
8.0
 10
0.5390554012363384
 20
0.1631507100704226
 30
0.0
 10
0.5390554012363384
 20
0.2621132556935445
 30
0.0
 10
0.5390554012363384
 20
0.3598850725211094
 30
0.0
 10
0.5390554012363384
 20
0.4629506780027703
 30
0.0
  0
SPLINE
  5
DF
330
8A
100
AcDbEntity
  8
0
  6
Continuous
 62
     8
370
     0
100
AcDbSpline
210
0.0
220
0.0
230
1.0
 70
     8
 71
     3
 72
     8
 73
     4
 74
     0
 42
0.000000001
 43
0.00000001
 40
6.0
 40
6.0
 40
6.0
 40
6.0
 40
7.0
 40
7.0
 40
7.0
 40
7.0
 10
0.5248162966050102
 20
0.1604724827972793
 30
0.0
 10
0.5295344120138378
 20
0.160476709191001
 30
0.0
 10
0.5342511442393161
 20
0.1622059189671589
 30
0.0
 10
0.5390554012363384
 20
0.1631507100704226
 30
0.0
  0
SPLINE
  5
E0
330
8A
100
AcDbEntity
  8
0
  6
Continuous
 62
     8
370
     0
100
AcDbSpline
210
0.0
220
0.0
230
1.0
 70
     8
 71
     3
 72
     8
 73
     4
 74
     0
 42
0.000000001
 43
0.00000001
 40
5.0
 40
5.0
 40
5.0
 40
5.0
 40
6.0
 40
6.0
 40
6.0
 40
6.0
 10
0.3514706816879914
 20
0.1613415830313804
 30
0.0
 10
0.4092002997320391
 20
0.1594312530738381
 30
0.0
 10
0.4670281237972034
 20
0.1604200755152499
 30
0.0
 10
0.5248162966050102
 20
0.1604724827972793
 30
0.0
  0
SPLINE
  5
E1
330
8A
100
AcDbEntity
  8
0
  6
Continuous
 62
     8
370
     0
100
AcDbSpline
210
0.0
220
0.0
230
1.0
 70
     8
 71
     3
 72
     8
 73
     4
 74
     0
 42
0.000000001
 43
0.00000001
 40
4.0
 40
4.0
 40
4.0
 40
4.0
 40
5.0
 40
5.0
 40
5.0
 40
5.0
 10
0.2828443064248989
 20
0.1742452240934728
 30
0.0
 10
0.3047319925993092
 20
0.1668458845140787
 30
0.0
 10
0.3284266157723944
 20
0.1621040244569259
 30
0.0
 10
0.3514706816879914
 20
0.1613415830313804
 30
0.0
  0
SPLINE
  5
E2
330
8A
100
AcDbEntity
  8
0
  6
Continuous
 62
     8
370
     0
100
AcDbSpline
210
0.0
220
0.0
230
1.0
 70
     8
 71
     3
 72
     8
 73
     4
 74
     0
 42
0.000000001
 43
0.00000001
 40
3.0
 40
3.0
 40
3.0
 40
3.0
 40
4.0
 40
4.0
 40
4.0
 40
4.0
 10
0.1909499432229893
 20
0.2882266055659034
 30
0.0
 10
0.1968572121351931
 20
0.2306200908441237
 30
0.0
 10
0.2288319553371043
 20
0.192504858640698
 30
0.0
 10
0.2828443064248989
 20
0.1742452240934728
 30
0.0
  0
SPLINE
  5
E3
330
8A
100
AcDbEntity
  8
0
  6
Continuous
 62
     8
370
     0
100
AcDbSpline
210
0.0
220
0.0
230
1.0
 70
     8
 71
     3
 72
     8
 73
     4
 74
     0
 42
0.000000001
 43
0.00000001
 40
2.0
 40
2.0
 40
2.0
 40
2.0
 40
3.0
 40
3.0
 40
3.0
 40
3.0
 10
0.2617660514897281
 20
0.4344948302049796
 30
0.0
 10
0.2049584404447451
 20
0.402667280769489
 30
0.0
 10
0.1844805255254232
 20
0.3513151371489273
 30
0.0
 10
0.1909499432229893
 20
0.2882266055659034
 30
0.0
  0
SPLINE
  5
E4
330
8A
100
AcDbEntity
  8
0
  6
Continuous
 62
     8
370
     0
100
AcDbSpline
210
0.0
220
0.0
230
1.0
 70
     8
 71
     3
 72
     8
 73
     4
 74
     0
 42
0.000000001
 43
0.00000001
 40
1.0
 40
1.0
 40
1.0
 40
1.0
 40
2.0
 40
2.0
 40
2.0
 40
2.0
 10
0.3252256988624132
 20
0.4563019075247557
 30
0.0
 10
0.3036116140481834
 20
0.4549463877962351
 30
0.0
 10
0.2810838597570612
 20
0.4453180097517018
 30
0.0
 10
0.2617660514897281
 20
0.4344948302049796
 30
0.0
  0
SPLINE
  5
E5
330
8A
100
AcDbEntity
  8
0
  6
Continuous
 62
     8
370
     0
100
AcDbSpline
210
0.0
220
0.0
230
1.0
 70
     8
 71
     3
 72
     8
 73
     4
 74
     0
 42
0.000000001
 43
0.00000001
 40
0.0
 40
0.0
 40
0.0
 40
0.0
 40
1.0
 40
1.0
 40
1.0
 40
1.0
 10
0.5390554012363384
 20
0.4629506780027703
 30
0.0
 10
0.4654456851481354
 20
0.4609859428316056
 30
0.0
 10
0.3952073249017251
 20
0.4606908637069915
 30
0.0
 10
0.3252256988624132
 20
0.4563019075247557
 30
0.0
  0
SPLINE
  5
E6
330
8A
100
AcDbEntity
  8
0
  6
Continuous
 62
     8
370
     0
100
AcDbSpline
210
0.0
220
0.0
230
1.0
 70
     8
 71
     3
 72
     8
 73
     4
 74
     0
 42
0.000000001
 43
0.00000001
 40
7.0
 40
7.0
 40
7.0
 40
7.0
 40
8.0
 40
8.0
 40
8.0
 40
8.0
 10
1.968538863962737
 20
0.4301953198823512
 30
0.0
 10
1.904244811206169
 20
0.427331938142857
 30
0.0
 10
1.839738209267667
 20
0.4292406159646945
 30
0.0
 10
1.772696693224568
 20
0.4292406159646945
 30
0.0
  0
SPLINE
  5
E7
330
8A
100
AcDbEntity
  8
0
  6
Continuous
 62
     8
370
     0
100
AcDbSpline
210
0.0
220
0.0
230
1.0
 70
     8
 71
     3
 72
     8
 73
     4
 74
     0
 42
0.000000001
 43
0.00000001
 40
6.0
 40
6.0
 40
6.0
 40
6.0
 40
7.0
 40
7.0
 40
7.0
 40
7.0
 10
2.042908793014375
 20
0.4507722861015534
 30
0.0
 10
2.019958245665075
 20
0.4397831245472366
 30
0.0
 10
1.99368083487319
 20
0.431315045263547
 30
0.0
 10
1.968538863962737
 20
0.4301953198823512
 30
0.0
  0
SPLINE
  5
E8
330
8A
100
AcDbEntity
  8
0
  6
Continuous
 62
     8
370
     0
100
AcDbSpline
210
0.0
220
0.0
230
1.0
 70
     8
 71
     3
 72
     8
 73
     4
 74
     0
 42
0.000000001
 43
0.00000001
 40
5.0
 40
5.0
 40
5.0
 40
5.0
 40
6.0
 40
6.0
 40
6.0
 40
6.0
 10
2.122229442816038
 20
0.5877238100214116
 30
0.0
 10
2.124799551253694
 20
0.5260290278191184
 30
0.0
 10
2.099434580442348
 20
0.4778377656335913
 30
0.0
 10
2.042908793014375
 20
0.4507722861015534
 30
0.0
  0
SPLINE
  5
E9
330
8A
100
AcDbEntity
  8
0
  6
Continuous
 62
     8
370
     0
100
AcDbSpline
210
0.0
220
0.0
230
1.0
 70
     8
 71
     3
 72
     8
 73
     4
 74
     0
 42
0.000000001
 43
0.00000001
 40
4.0
 40
4.0
 40
4.0
 40
4.0
 40
5.0
 40
5.0
 40
5.0
 40
5.0
 10
2.024827819655828
 20
0.7166598437914923
 30
0.0
 10
2.086392697884135
 20
0.6961935322439563
 30
0.0
 10
2.119482747964745
 20
0.6536512102604237
 30
0.0
 10
2.122229442816038
 20
0.5877238100214116
 30
0.0
  0
SPLINE
  5
EA
330
8A
100
AcDbEntity
  8
0
  6
Continuous
 62
     8
370
     0
100
AcDbSpline
210
0.0
220
0.0
230
1.0
 70
     8
 71
     3
 72
     8
 73
     4
 74
     0
 42
0.000000001
 43
0.00000001
 40
3.0
 40
3.0
 40
3.0
 40
3.0
 40
4.0
 40
4.0
 40
4.0
 40
4.0
 10
1.988237547146977
 20
0.724942864663213
 30
0.0
 10
2.000513760851701
 20
0.7246260388219401
 30
0.0
 10
2.012985618163513
 20
0.7205966719010098
 30
0.0
 10
2.024827819655828
 20
0.7166598437914923
 30
0.0
  0
SPLINE
  5
EB
330
8A
100
AcDbEntity
  8
0
  6
Continuous
 62
     8
370
     0
100
AcDbSpline
210
0.0
220
0.0
230
1.0
 70
     8
 71
     3
 72
     8
 73
     4
 74
     0
 42
0.000000001
 43
0.00000001
 40
2.0
 40
2.0
 40
2.0
 40
2.0
 40
3.0
 40
3.0
 40
3.0
 40
3.0
 10
1.7771757484364
 20
0.7284172868789588
 30
0.0
 10
1.847533984577173
 20
0.7274827351749661
 30
0.0
 10
1.917900058757163
 20
0.726758196816677
 30
0.0
 10
1.988237547146977
 20
0.724942864663213
 30
0.0
  0
SPLINE
  5
EC
330
8A
100
AcDbEntity
  8
0
  6
Continuous
 62
     8
370
     0
100
AcDbSpline
210
0.0
220
0.0
230
1.0
 70
     8
 71
     3
 72
     8
 73
     4
 74
     0
 42
0.000000001
 43
0.00000001
 40
1.0
 40
1.0
 40
1.0
 40
1.0
 40
2.0
 40
2.0
 40
2.0
 40
2.0
 10
1.772696693224568
 20
0.72493731271878
 30
0.0
 10
1.774597955646521
 20
0.7264700336090679
 30
0.0
 10
1.77589999228373
 20
0.7284342116647347
 30
0.0
 10
1.7771757484364
 20
0.7284172868789588
 30
0.0
  0
SPLINE
  5
ED
330
8A
100
AcDbEntity
  8
0
  6
Continuous
 62
     8
370
     0
100
AcDbSpline
210
0.0
220
0.0
230
1.0
 70
    24
 71
     3
 72
     8
 73
     4
 74
     0
 42
0.000000001
 43
0.00000001
 40
0.0
 40
0.0
 40
0.0
 40
0.0
 40
1.0
 40
1.0
 40
1.0
 40
1.0
 10
1.772696693224568
 20
0.4292406159646945
 30
0.0
 10
1.772696693224568
 20
0.5294707339053845
 30
0.0
 10
1.772696693224568
 20
0.6274446107741074
 30
0.0
 10
1.772696693224568
 20
0.72493731271878
 30
0.0
  0
SPLINE
  5
EE
330
8A
100
AcDbEntity
  8
0
  6
Continuous
 62
     8
370
     0
100
AcDbSpline
210
0.0
220
0.0
230
1.0
 70
     8
 71
     3
 72
     8
 73
     4
 74
     0
 42
0.000000001
 43
0.00000001
 40
7.0
 40
7.0
 40
7.0
 40
7.0
 40
8.0
 40
8.0
 40
8.0
 40
8.0
 10
0.3252256988624132
 20
0.4563019075247557
 30
0.0
 10
0.3952073249017251
 20
0.4606908637069915
 30
0.0
 10
0.4654456851481354
 20
0.4609859428316056
 30
0.0
 10
0.5390554012363384
 20
0.4629506780027703
 30
0.0
  0
SPLINE
  5
EF
330
8A
100
AcDbEntity
  8
0
  6
Continuous
 62
     8
370
     0
100
AcDbSpline
210
0.0
220
0.0
230
1.0
 70
     8
 71
     3
 72
     8
 73
     4
 74
     0
 42
0.000000001
 43
0.00000001
 40
6.0
 40
6.0
 40
6.0
 40
6.0
 40
7.0
 40
7.0
 40
7.0
 40
7.0
 10
0.2617660514897281
 20
0.4344948302049796
 30
0.0
 10
0.2810838597570612
 20
0.4453180097517018
 30
0.0
 10
0.3036116140481834
 20
0.4549463877962351
 30
0.0
 10
0.3252256988624132
 20
0.4563019075247557
 30
0.0
  0
SPLINE
  5
F0
330
8A
100
AcDbEntity
  8
0
  6
Continuous
 62
     8
370
     0
100
AcDbSpline
210
0.0
220
0.0
230
1.0
 70
     8
 71
     3
 72
     8
 73
     4
 74
     0
 42
0.000000001
 43
0.00000001
 40
5.0
 40
5.0
 40
5.0
 40
5.0
 40
6.0
 40
6.0
 40
6.0
 40
6.0
 10
0.1909499432229893
 20
0.2882266055659034
 30
0.0
 10
0.1844805255254232
 20
0.3513151371489273
 30
0.0
 10
0.2049584404447451
 20
0.402667280769489
 30
0.0
 10
0.2617660514897281
 20
0.4344948302049796
 30
0.0
  0
SPLINE
  5
F1
330
8A
100
AcDbEntity
  8
0
  6
Continuous
 62
     8
370
     0
100
AcDbSpline
210
0.0
220
0.0
230
1.0
 70
     8
 71
     3
 72
     8
 73
     4
 74
     0
 42
0.000000001
 43
0.00000001
 40
4.0
 40
4.0
 40
4.0
 40
4.0
 40
5.0
 40
5.0
 40
5.0
 40
5.0
 10
0.2828443064248989
 20
0.1742452240934728
 30
0.0
 10
0.2288319553371043
 20
0.192504858640698
 30
0.0
 10
0.1968572121351931
 20
0.2306200908441237
 30
0.0
 10
0.1909499432229893
 20
0.2882266055659034
 30
0.0
  0
SPLINE
  5
F2
330
8A
100
AcDbEntity
  8
0
  6
Continuous
 62
     8
370
     0
100
AcDbSpline
210
0.0
220
0.0
230
1.0
 70
     8
 71
     3
 72
     8
 73
     4
 74
     0
 42
0.000000001
 43
0.00000001
 40
3.0
 40
3.0
 40
3.0
 40
3.0
 40
4.0
 40
4.0
 40
4.0
 40
4.0
 10
0.3514706816879914
 20
0.1613415830313804
 30
0.0
 10
0.3284266157723944
 20
0.1621040244569259
 30
0.0
 10
0.3047319925993092
 20
0.1668458845140787
 30
0.0
 10
0.2828443064248989
 20
0.1742452240934728
 30
0.0
  0
SPLINE
  5
F3
330
8A
100
AcDbEntity
  8
0
  6
Continuous
 62
     8
370
     0
100
AcDbSpline
210
0.0
220
0.0
230
1.0
 70
     8
 71
     3
 72
     8
 73
     4
 74
     0
 42
0.000000001
 43
0.00000001
 40
2.0
 40
2.0
 40
2.0
 40
2.0
 40
3.0
 40
3.0
 40
3.0
 40
3.0
 10
0.5248162966050102
 20
0.1604724827972793
 30
0.0
 10
0.4670281237972034
 20
0.1604200755152499
 30
0.0
 10
0.4092002997320391
 20
0.1594312530738381
 30
0.0
 10
0.3514706816879914
 20
0.1613415830313804
 30
0.0
  0
SPLINE
  5
F4
330
8A
100
AcDbEntity
  8
0
  6
Continuous
 62
     8
370
     0
100
AcDbSpline
210
0.0
220
0.0
230
1.0
 70
     8
 71
     3
 72
     8
 73
     4
 74
     0
 42
0.000000001
 43
0.00000001
 40
1.0
 40
1.0
 40
1.0
 40
1.0
 40
2.0
 40
2.0
 40
2.0
 40
2.0
 10
0.5390554012363384
 20
0.1631507100704226
 30
0.0
 10
0.5342511442393161
 20
0.1622059189671589
 30
0.0
 10
0.5295344120138378
 20
0.160476709191001
 30
0.0
 10
0.5248162966050102
 20
0.1604724827972793
 30
0.0
  0
SPLINE
  5
F5
330
8A
100
AcDbEntity
  8
0
  6
Continuous
 62
     8
370
     0
100
AcDbSpline
210
0.0
220
0.0
230
1.0
 70
    24
 71
     3
 72
     8
 73
     4
 74
     0
 42
0.000000001
 43
0.00000001
 40
0.0
 40
0.0
 40
0.0
 40
0.0
 40
1.0
 40
1.0
 40
1.0
 40
1.0
 10
0.5390554012363384
 20
0.4629506780027703
 30
0.0
 10
0.5390554012363384
 20
0.3598850725211094
 30
0.0
 10
0.5390554012363384
 20
0.2621132556935445
 30
0.0
 10
0.5390554012363384
 20
0.1631507100704226
 30
0.0
  0
ENDBLK
  5
8C
330
8A
100
AcDbEntity
  8
0
100
AcDbBlockEnd
  0
BLOCK
  5
F7
330
F6
100
AcDbEntity
  8
0
100
AcDbBlockBegin
  2
Block1
 70
     0
 10
0.0
 20
0.0
 30
0.0
  3
Block1
  1

  0
LINE
  5
F9
330
F6
100
AcDbEntity
  8
0
  6
Continuous
 62
   179
370
    25
100
AcDbLine
 10
2.5089052709
 20
1.1238221986
 30
0.0
 11
1.6421086618
 21
1.1238221986
 31
0.0
  0
LINE
  5
FA
330
F6
100
AcDbEntity
  8
0
  6
Continuous
 62
   179
370
    25
100
AcDbLine
 10
2.5189052709
 20
1.6138221927
 30
0.0
 11
2.5189052709
 21
1.1338221986
 31
0.0
  0
LINE
  5
FB
330
F6
100
AcDbEntity
  8
0
  6
Continuous
 62
   179
370
    25
100
AcDbLine
 10
2.5089052709
 20
1.6238221927
 30
0.0
 11
1.6421086306
 21
1.6238221927
 31
0.0
  0
LINE
  5
FC
330
F6
100
AcDbEntity
  8
0
  6
Continuous
 62
   179
370
    25
100
AcDbLine
 10
1.4789052433
 20
1.6238221927
 30
0.0
 11
1.5357408353
 21
1.6238221927
 31
0.0
  0
LINE
  5
FD
330
F6
100
AcDbEntity
  8
0
  6
Continuous
 62
   179
370
    25
100
AcDbLine
 10
1.468905264
 20
1.8018221885
 30
0.0
 11
1.4689052433
 21
1.6338221927
 31
0.0
  0
LINE
  5
FE
330
F6
100
AcDbEntity
  8
0
  6
Continuous
 62
   179
370
    25
100
AcDbLine
 10
1.5089052959
 20
1.8118222053
 30
0.0
 11
1.478905264
 21
1.8118221885
 31
0.0
  0
LINE
  5
FF
330
F6
100
AcDbEntity
  8
0
  6
Continuous
 62
   179
370
    25
100
AcDbLine
 10
1.5189053122
 20
1.6838222008
 30
0.0
 11
1.5189052959
 21
1.8018222053
 31
0.0
  0
LINE
  5
100
330
F6
100
AcDbEntity
  8
0
  6
Continuous
 62
   179
370
    25
100
AcDbLine
 10
2.5089053137
 20
1.6738222008
 30
0.0
 11
1.5289053122
 21
1.6738222008
 31
0.0
  0
LINE
  5
101
330
F6
100
AcDbEntity
  8
0
  6
Continuous
 62
   179
370
    25
100
AcDbLine
 10
2.5189053137
 20
2.283855548
 30
0.0
 11
2.5189053137
 21
1.6838222008
 31
0.0
  0
LINE
  5
102
330
F6
100
AcDbEntity
  8
0
  6
Continuous
 62
   179
370
    25
100
AcDbLine
 10
2.5189053137
 20
2.5388221661
 30
0.0
 11
2.5189053137
 21
2.3137888071
 31
0.0
  0
LINE
  5
103
330
F6
100
AcDbEntity
  8
0
  6
Continuous
 62
   179
370
    25
100
AcDbLine
 10
2.5589053131
 20
2.548822139
 30
0.0
 11
2.5289053137
 21
2.5488221661
 31
0.0
  0
LINE
  5
104
330
F6
100
AcDbEntity
  8
0
  6
Continuous
 62
   179
370
    25
100
AcDbLine
 10
2.5689052255
 20
1.0888221984
 30
0.0
 11
2.5689053131
 21
2.538822139
 31
0.0
  0
LINE
  5
105
330
F6
100
AcDbEntity
  8
0
  6
Continuous
 62
   179
370
    25
100
AcDbLine
 10
1.4789052306
 20
1.0738221984
 30
0.0
 11
2.5539052255
 21
1.0738221984
 31
0.0
  0
LINE
  5
106
330
F6
100
AcDbEntity
  8
0
  6
Continuous
 62
   179
370
    25
100
AcDbLine
 10
1.4689052512
 20
1.1138221986
 30
0.0
 11
1.4689052306
 21
1.0838221984
 31
0.0
  0
LINE
  5
107
330
F6
100
AcDbEntity
  8
0
  6
Continuous
 62
   179
370
    25
100
AcDbLine
 10
1.4789052512
 20
1.1238221986
 30
0.0
 11
1.5357408664
 21
1.1238221986
 31
0.0
  0
LINE
  5
108
330
F6
100
AcDbEntity
  8
0
  6
Continuous
 62
     7
370
    18
100
AcDbLine
 10
2.0658931549
 20
1.6738221984
 30
0.0
 11
2.0858931549
 21
1.8038221984
 31
0.0
  0
LINE
  5
109
330
F6
100
AcDbEntity
  8
0
  6
Continuous
 62
     7
370
    18
100
AcDbLine
 10
2.0858931549
 20
1.8038221984
 30
0.0
 11
2.0458931549
 21
1.8038221984
 31
0.0
  0
LINE
  5
10A
330
F6
100
AcDbEntity
  8
0
  6
Continuous
 62
     7
370
    18
100
AcDbLine
 10
2.0458931549
 20
1.8038221984
 30
0.0
 11
2.0658931549
 21
1.6738221984
 31
0.0
  0
LINE
  5
10B
330
F6
100
AcDbEntity
  8
0
  6
Continuous
 62
     7
370
    18
100
AcDbLine
 10
2.0658931549
 20
2.5488221984
 30
0.0
 11
2.0458931549
 21
2.4188221984
 31
0.0
  0
LINE
  5
10C
330
F6
100
AcDbEntity
  8
0
  6
Continuous
 62
     7
370
    18
100
AcDbLine
 10
2.0458931549
 20
2.4188221984
 30
0.0
 11
2.0858931549
 21
2.4188221984
 31
0.0
  0
LINE
  5
10D
330
F6
100
AcDbEntity
  8
0
  6
Continuous
 62
     7
370
    18
100
AcDbLine
 10
2.0858931549
 20
2.4188221984
 30
0.0
 11
2.0658931549
 21
2.5488221984
 31
0.0
  0
LINE
  5
10E
330
F6
100
AcDbEntity
  8
0
  6
Continuous
 62
     7
370
    18
100
AcDbLine
 10
2.4289052306
 20
2.5488221984
 30
0.0
 11
2.0265230762
 21
2.5488221984
 31
0.0
  0
LINE
  5
10F
330
F6
100
AcDbEntity
  8
0
  6
Continuous
 62
     7
370
    18
100
AcDbLine
 10
2.0658931549
 20
1.6738221984
 30
0.0
 11
2.0658931549
 21
2.5488221984
 31
0.0
  0
LINE
  5
110
330
F6
100
AcDbEntity
  8
0
  6
Continuous
 62
     7
370
    18
100
AcDbLine
 10
1.1120161531
 20
1.6238221984
 30
0.0
 11
1.0920161531
 21
1.4938221984
 31
0.0
  0
LINE
  5
111
330
F6
100
AcDbEntity
  8
0
  6
Continuous
 62
     7
370
    18
100
AcDbLine
 10
1.0920161531
 20
1.4938221984
 30
0.0
 11
1.1320161531
 21
1.4938221984
 31
0.0
  0
LINE
  5
112
330
F6
100
AcDbEntity
  8
0
  6
Continuous
 62
     7
370
    18
100
AcDbLine
 10
1.1320161531
 20
1.4938221984
 30
0.0
 11
1.1120161531
 21
1.6238221984
 31
0.0
  0
LINE
  5
113
330
F6
100
AcDbEntity
  8
0
  6
Continuous
 62
     7
370
    18
100
AcDbLine
 10
1.1120161531
 20
1.8118221984
 30
0.0
 11
1.1320161531
 21
1.9418221984
 31
0.0
  0
LINE
  5
114
330
F6
100
AcDbEntity
  8
0
  6
Continuous
 62
     7
370
    18
100
AcDbLine
 10
1.1320161531
 20
1.9418221984
 30
0.0
 11
1.0920161531
 21
1.9418221984
 31
0.0
  0
LINE
  5
115
330
F6
100
AcDbEntity
  8
0
  6
Continuous
 62
     7
370
    18
100
AcDbLine
 10
1.0920161531
 20
1.9418221984
 30
0.0
 11
1.1120161531
 21
1.8118221984
 31
0.0
  0
LINE
  5
116
330
F6
100
AcDbEntity
  8
0
  6
Continuous
 62
     7
370
    18
100
AcDbLine
 10
1.3789052306
 20
1.6238221984
 30
0.0
 11
1.0726460744
 21
1.6238221984
 31
0.0
  0
LINE
  5
117
330
F6
100
AcDbEntity
  8
0
  6
Continuous
 62
     7
370
    18
100
AcDbLine
 10
1.3789052306
 20
1.8118221984
 30
0.0
 11
1.0726460744
 21
1.8118221984
 31
0.0
  0
LINE
  5
118
330
F6
100
AcDbEntity
  8
0
  6
Continuous
 62
     7
370
    18
100
AcDbLine
 10
1.1120161531
 20
1.6238221984
 30
0.0
 11
1.1120161531
 21
1.3738221984
 31
0.0
  0
LINE
  5
119
330
F6
100
AcDbEntity
  8
0
  6
Continuous
 62
     7
370
    18
100
AcDbLine
 10
1.1120161531
 20
1.6238221984
 30
0.0
 11
1.1120161531
 21
1.8118221984
 31
0.0
  0
LINE
  5
11A
330
F6
100
AcDbEntity
  8
0
  6
Continuous
 62
     7
370
    18
100
AcDbLine
 10
1.1120161531
 20
1.8118221984
 30
0.0
 11
1.1120161531
 21
2.1612698186
 31
0.0
  0
LINE
  5
11B
330
F6
100
AcDbEntity
  8
0
  6
Continuous
 62
     7
370
    18
100
AcDbLine
 10
1.1120161531
 20
1.1238221984
 30
0.0
 11
1.1320161531
 21
1.2538221984
 31
0.0
  0
LINE
  5
11C
330
F6
100
AcDbEntity
  8
0
  6
Continuous
 62
     7
370
    18
100
AcDbLine
 10
1.1320161531
 20
1.2538221984
 30
0.0
 11
1.0920161531
 21
1.2538221984
 31
0.0
  0
LINE
  5
11D
330
F6
100
AcDbEntity
  8
0
  6
Continuous
 62
     7
370
    18
100
AcDbLine
 10
1.0920161531
 20
1.2538221984
 30
0.0
 11
1.1120161531
 21
1.1238221984
 31
0.0
  0
LINE
  5
11E
330
F6
100
AcDbEntity
  8
0
  6
Continuous
 62
     7
370
    18
100
AcDbLine
 10
1.1120161531
 20
1.6238221984
 30
0.0
 11
1.0920161531
 21
1.4938221984
 31
0.0
  0
LINE
  5
11F
330
F6
100
AcDbEntity
  8
0
  6
Continuous
 62
     7
370
    18
100
AcDbLine
 10
1.0920161531
 20
1.4938221984
 30
0.0
 11
1.1320161531
 21
1.4938221984
 31
0.0
  0
LINE
  5
120
330
F6
100
AcDbEntity
  8
0
  6
Continuous
 62
     7
370
    18
100
AcDbLine
 10
1.1320161531
 20
1.4938221984
 30
0.0
 11
1.1120161531
 21
1.6238221984
 31
0.0
  0
LINE
  5
121
330
F6
100
AcDbEntity
  8
0
  6
Continuous
 62
     7
370
    18
100
AcDbLine
 10
1.3789052306
 20
1.1238221984
 30
0.0
 11
1.0726460744
 21
1.1238221984
 31
0.0
  0
LINE
  5
122
330
F6
100
AcDbEntity
  8
0
  6
Continuous
 62
     7
370
    18
100
AcDbLine
 10
1.3789052306
 20
1.6238221984
 30
0.0
 11
1.0726460744
 21
1.6238221984
 31
0.0
  0
LINE
  5
123
330
F6
100
AcDbEntity
  8
0
  6
Continuous
 62
     7
370
    18
100
AcDbLine
 10
1.1120161531
 20
1.1238221984
 30
0.0
 11
1.1120161531
 21
1.6238221984
 31
0.0
  0
LINE
  5
124
330
F6
100
AcDbEntity
  8
0
  6
Continuous
 62
     7
370
    18
100
AcDbLine
 10
1.4689052306
 20
0.2905140396
 30
0.0
 11
1.5989052306
 21
0.2705140396
 31
0.0
  0
LINE
  5
125
330
F6
100
AcDbEntity
  8
0
  6
Continuous
 62
     7
370
    18
100
AcDbLine
 10
1.5989052306
 20
0.2705140396
 30
0.0
 11
1.5989052306
 21
0.3105140396
 31
0.0
  0
LINE
  5
126
330
F6
100
AcDbEntity
  8
0
  6
Continuous
 62
     7
370
    18
100
AcDbLine
 10
1.5989052306
 20
0.3105140396
 30
0.0
 11
1.4689052306
 21
0.2905140396
 31
0.0
  0
LINE
  5
127
330
F6
100
AcDbEntity
  8
0
  6
Continuous
 62
     7
370
    18
100
AcDbLine
 10
2.5189052306
 20
0.2905140396
 30
0.0
 11
2.3889052306
 21
0.3105140396
 31
0.0
  0
LINE
  5
128
330
F6
100
AcDbEntity
  8
0
  6
Continuous
 62
     7
370
    18
100
AcDbLine
 10
2.3889052306
 20
0.3105140396
 30
0.0
 11
2.3889052306
 21
0.2705140396
 31
0.0
  0
LINE
  5
129
330
F6
100
AcDbEntity
  8
0
  6
Continuous
 62
     7
370
    18
100
AcDbLine
 10
2.3889052306
 20
0.2705140396
 30
0.0
 11
2.5189052306
 21
0.2905140396
 31
0.0
  0
LINE
  5
12A
330
F6
100
AcDbEntity
  8
0
  6
Continuous
 62
     7
370
    18
100
AcDbLine
 10
1.4689052306
 20
0.9838221984
 30
0.0
 11
1.4689052306
 21
0.2511439609
 31
0.0
  0
LINE
  5
12B
330
F6
100
AcDbEntity
  8
0
  6
Continuous
 62
     7
370
    18
100
AcDbLine
 10
2.5189052306
 20
1.0338221984
 30
0.0
 11
2.5189052306
 21
0.2511439609
 31
0.0
  0
LINE
  5
12C
330
F6
100
AcDbEntity
  8
0
  6
Continuous
 62
     7
370
    18
100
AcDbLine
 10
1.4689052306
 20
0.2905140396
 30
0.0
 11
1.7648205754
 21
0.2905140396
 31
0.0
  0
LINE
  5
12D
330
F6
100
AcDbEntity
  8
0
  6
Continuous
 62
     7
370
    18
100
AcDbLine
 10
2.5189052306
 20
0.2905140396
 30
0.0
 11
2.2229898859
 21
0.2905140396
 31
0.0
  0
LINE
  5
12E
330
F6
100
AcDbEntity
  8
0
  6
Continuous
 62
     7
370
    18
100
AcDbLine
 10
0.9106273946
 20
0.742362291
 30
0.0
 11
1.1606273946
 21
0.742362291
 31
0.0
  0
LINE
  5
12F
330
F6
100
AcDbEntity
  8
0
  6
Continuous
 62
     7
370
    18
100
AcDbLine
 10
1.1606273946
 20
0.742362291
 30
0.0
 11
1.4724326461
 21
1.0761992268
 31
0.0
  0
LINE
  5
130
330
F6
100
AcDbEntity
  8
0
  6
Continuous
 62
     7
370
    18
100
AcDbLine
 10
1.4724326461
 20
1.0761992268
 30
0.0
 11
1.3690809831
 21
0.99484547
 31
0.0
  0
LINE
  5
131
330
F6
100
AcDbEntity
  8
0
  6
Continuous
 62
     7
370
    18
100
AcDbLine
 10
1.3690809831
 20
0.99484547
 30
0.0
 11
1.3983134031
 21
0.9675422537
 31
0.0
  0
LINE
  5
132
330
F6
100
AcDbEntity
  8
0
  6
Continuous
 62
     7
370
    18
100
AcDbLine
 10
1.3983134031
 20
0.9675422537
 30
0.0
 11
1.4724326461
 21
1.0761992268
 31
0.0
  0
SPLINE
  5
133
330
F6
100
AcDbEntity
  8
0
  6
Continuous
 62
   179
370
    25
100
AcDbSpline
210
0.0
220
0.0
230
1.0
 70
     8
 71
     3
 72
    11
 73
     7
 74
     0
 42
0.000000001
 43
0.00000001
 40
0.0
 40
0.0
 40
0.0
 40
0.0
 40
1.0
 40
1.0
 40
1.0
 40
2.0
 40
2.0
 40
2.0
 40
2.0
 10
1.550166878476569
 20
1.134712432543586
 30
0.0
 10
1.553987775268217
 20
1.148124461984164
 30
0.0
 10
1.564471163272206
 20
1.158607849987244
 30
0.0
 10
1.577883192712783
 20
1.162428746780185
 30
0.0
 10
1.599288581895938
 20
1.168526838289665
 30
0.0
 10
1.621584558280139
 20
1.156117821727161
 30
0.0
 10
1.627682649789898
 20
1.134712432544006
 30
0.0
  0
SPLINE
  5
134
330
F6
100
AcDbEntity
  8
0
  6
Continuous
 62
   179
370
    25
100
AcDbSpline
210
0.0
220
0.0
230
1.0
 70
     8
 71
     3
 72
     8
 73
     4
 74
     0
 42
0.000000001
 43
0.00000001
 40
0.0
 40
0.0
 40
0.0
 40
0.0
 40
1.0
 40
1.0
 40
1.0
 40
1.0
 10
1.627682649789898
 20
1.134712432544006
 30
0.0
 10
1.629518746895121
 20
1.128267404117676
 30
0.0
 10
1.635407196012336
 20
1.12382219858047
 30
0.0
 10
1.642108661820197
 20
1.12382219858026
 30
0.0
  0
SPLINE
  5
135
330
F6
100
AcDbEntity
  8
0
  6
Continuous
 62
   179
370
    25
100
AcDbSpline
210
0.0
220
0.0
230
1.0
 70
     8
 71
     3
 72
     8
 73
     4
 74
     0
 42
0.000000001
 43
0.00000001
 40
0.0
 40
0.0
 40
0.0
 40
0.0
 40
1.0
 40
1.0
 40
1.0
 40
1.0
 10
2.508905270876254
 20
1.12382219858026
 30
0.0
 10
2.514428118375652
 20
1.12382219858033
 30
0.0
 10
2.518905270876428
 20
1.128299351083064
 30
0.0
 10
2.518905270876358
 20
1.133822198580539
 30
0.0
  0
SPLINE
  5
136
330
F6
100
AcDbEntity
  8
0
  6
Continuous
 62
   179
370
    25
100
AcDbSpline
210
0.0
220
0.0
230
1.0
 70
     8
 71
     3
 72
     8
 73
     4
 74
     0
 42
0.000000001
 43
0.00000001
 40
0.0
 40
0.0
 40
0.0
 40
0.0
 40
1.0
 40
1.0
 40
1.0
 40
1.0
 10
2.518905270876358
 20
1.613822192746667
 30
0.0
 10
2.518905270876428
 20
1.619345040246101
 30
0.0
 10
2.514428118375582
 20
1.623822192746875
 30
0.0
 10
2.508905270876184
 20
1.623822192746875
 30
0.0
  0
SPLINE
  5
137
330
F6
100
AcDbEntity
  8
0
  6
Continuous
 62
   179
370
    25
100
AcDbSpline
210
0.0
220
0.0
230
1.0
 70
     8
 71
     3
 72
     8
 73
     4
 74
     0
 42
0.000000001
 43
0.00000001
 40
0.0
 40
0.0
 40
0.0
 40
0.0
 40
1.0
 40
1.0
 40
1.0
 40
1.0
 10
1.64210863064475
 20
1.623822192746875
 30
0.0
 10
1.635407164836889
 20
1.623822192746875
 30
0.0
 10
1.629518715719569
 20
1.619376987209669
 30
0.0
 10
1.627682618614277
 20
1.612931958785298
 30
0.0
  0
SPLINE
  5
138
330
F6
100
AcDbEntity
  8
0
  6
Continuous
 62
   179
370
    25
100
AcDbSpline
210
0.0
220
0.0
230
1.0
 70
     8
 71
     3
 72
    11
 73
     7
 74
     0
 42
0.000000001
 43
0.00000001
 40
0.0
 40
0.0
 40
0.0
 40
0.0
 40
1.0
 40
1.0
 40
1.0
 40
2.0
 40
2.0
 40
2.0
 40
2.0
 10
1.627682618614277
 20
1.612931958785298
 30
0.0
 10
1.623861721822559
 20
1.599519929344721
 30
0.0
 10
1.613378333818464
 20
1.589036541339683
 30
0.0
 10
1.599966304377887
 20
1.585215644548909
 30
0.0
 10
1.578560915194662
 20
1.579117553039429
 30
0.0
 10
1.556264938810566
 20
1.591526569600255
 30
0.0
 10
1.550166847300947
 20
1.612931958785298
 30
0.0
  0
SPLINE
  5
139
330
F6
100
AcDbEntity
  8
0
  6
Continuous
 62
   179
370
    25
100
AcDbSpline
210
0.0
220
0.0
230
1.0
 70
     8
 71
     3
 72
     8
 73
     4
 74
     0
 42
0.000000001
 43
0.00000001
 40
0.0
 40
0.0
 40
0.0
 40
0.0
 40
1.0
 40
1.0
 40
1.0
 40
1.0
 10
1.550166847300947
 20
1.612931958785298
 30
0.0
 10
1.548330750195654
 20
1.619376987209669
 30
0.0
 10
1.542442301078335
 20
1.623822192746875
 30
0.0
 10
1.535740835270439
 20
1.623822192746875
 30
0.0
  0
SPLINE
  5
13A
330
F6
100
AcDbEntity
  8
0
  6
Continuous
 62
   179
370
    25
100
AcDbSpline
210
0.0
220
0.0
230
1.0
 70
     8
 71
     3
 72
     8
 73
     4
 74
     0
 42
0.000000001
 43
0.00000001
 40
0.0
 40
0.0
 40
0.0
 40
0.0
 40
1.0
 40
1.0
 40
1.0
 40
1.0
 10
1.478905243348763
 20
1.623822192746875
 30
0.0
 10
1.473382395850238
 20
1.623822192746806
 30
0.0
 10
1.468905243348414
 20
1.62829934524947
 30
0.0
 10
1.468905243348379
 20
1.633822192747015
 30
0.0
  0
SPLINE
  5
13B
330
F6
100
AcDbEntity
  8
0
  6
Continuous
 62
   179
370
    25
100
AcDbSpline
210
0.0
220
0.0
230
1.0
 70
     8
 71
     3
 72
     8
 73
     4
 74
     0
 42
0.000000001
 43
0.00000001
 40
0.0
 40
0.0
 40
0.0
 40
0.0
 40
1.0
 40
1.0
 40
1.0
 40
1.0
 10
1.468905263975798
 20
1.801822188454391
 30
0.0
 10
1.468905263975833
 20
1.807345035953756
 30
0.0
 10
1.473382416477693
 20
1.811822188454601
 30
0.0
 10
1.478905263976217
 20
1.811822188454531
 30
0.0
  0
SPLINE
  5
13C
330
F6
100
AcDbEntity
  8
0
  6
Continuous
 62
   179
370
    25
100
AcDbSpline
210
0.0
220
0.0
230
1.0
 70
     8
 71
     3
 72
     8
 73
     4
 74
     0
 42
0.000000001
 43
0.00000001
 40
0.0
 40
0.0
 40
0.0
 40
0.0
 40
1.0
 40
1.0
 40
1.0
 40
1.0
 10
1.508905295853007
 20
1.811822205307577
 30
0.0
 10
1.514428143351462
 20
1.811822205307716
 30
0.0
 10
1.518905295853216
 20
1.807345052806941
 30
0.0
 10
1.518905295853356
 20
1.801822205307578
 30
0.0
  0
SPLINE
  5
13D
330
F6
100
AcDbEntity
  8
0
  6
Continuous
 62
   179
370
    25
100
AcDbSpline
210
0.0
220
0.0
230
1.0
 70
     8
 71
     3
 72
     8
 73
     4
 74
     0
 42
0.000000001
 43
0.00000001
 40
0.0
 40
0.0
 40
0.0
 40
0.0
 40
1.0
 40
1.0
 40
1.0
 40
1.0
 10
1.518905312209476
 20
1.683822200827792
 30
0.0
 10
1.518905312209267
 20
1.678299353330317
 30
0.0
 10
1.523382464710881
 20
1.673822200828982
 30
0.0
 10
1.528905312208392
 20
1.673822200828841
 30
0.0
  0
SPLINE
  5
13E
330
F6
100
AcDbEntity
  8
0
  6
Continuous
 62
   179
370
    25
100
AcDbSpline
210
0.0
220
0.0
230
1.0
 70
     8
 71
     3
 72
     8
 73
     4
 74
     0
 42
0.000000001
 43
0.00000001
 40
0.0
 40
0.0
 40
0.0
 40
0.0
 40
1.0
 40
1.0
 40
1.0
 40
1.0
 10
2.508905313667956
 20
1.673822200828841
 30
0.0
 10
2.514428161167354
 20
1.67382220082926
 30
0.0
 10
2.518905313667815
 20
1.678299353330455
 30
0.0
 10
2.518905313667395
 20
1.683822200827929
 30
0.0
  0
SPLINE
  5
13F
330
F6
100
AcDbEntity
  8
0
  6
Continuous
 62
   179
370
    25
100
AcDbSpline
210
0.0
220
0.0
230
1.0
 70
     8
 71
     3
 72
     8
 73
     4
 74
     0
 42
0.000000001
 43
0.00000001
 40
0.0
 40
0.0
 40
0.0
 40
0.0
 40
1.0
 40
1.0
 40
1.0
 40
1.0
 10
2.518905313667395
 20
2.283855548045529
 30
0.0
 10
2.51890531366736
 20
2.287195436713661
 30
0.0
 10
2.520572709421637
 20
2.290314848533606
 30
0.0
 10
2.52334975811203
 20
2.292170342238746
 30
0.0
  0
SPLINE
  5
140
330
F6
100
AcDbEntity
  8
0
  6
Continuous
 62
   179
370
    25
100
AcDbSpline
210
0.0
220
0.0
230
1.0
 70
     8
 71
     3
 72
     8
 73
     4
 74
     0
 42
0.000000001
 43
0.00000001
 40
0.0
 40
0.0
 40
0.0
 40
0.0
 40
1.0
 40
1.0
 40
1.0
 40
1.0
 10
2.52334975811203
 20
2.292170342238746
 30
0.0
 10
2.527023465337351
 20
2.295844049463088
 30
0.0
 10
2.527023465338609
 20
2.30180030572351
 30
0.0
 10
2.523349758112974
 20
2.305474012947221
 30
0.0
  0
SPLINE
  5
141
330
F6
100
AcDbEntity
  8
0
  6
Continuous
 62
   179
370
    25
100
AcDbSpline
210
0.0
220
0.0
230
1.0
 70
     8
 71
     3
 72
     8
 73
     4
 74
     0
 42
0.000000001
 43
0.00000001
 40
0.0
 40
0.0
 40
0.0
 40
0.0
 40
1.0
 40
1.0
 40
1.0
 40
1.0
 10
2.523349758112974
 20
2.305474012947221
 30
0.0
 10
2.520572709422546
 20
2.307329506652292
 30
0.0
 10
2.518905313668129
 20
2.31044891847063
 30
0.0
 10
2.518905313668129
 20
2.31378880713862
 30
0.0
  0
SPLINE
  5
142
330
F6
100
AcDbEntity
  8
0
  6
Continuous
 62
   179
370
    25
100
AcDbSpline
210
0.0
220
0.0
230
1.0
 70
     8
 71
     3
 72
     8
 73
     4
 74
     0
 42
0.000000001
 43
0.00000001
 40
0.0
 40
0.0
 40
0.0
 40
0.0
 40
1.0
 40
1.0
 40
1.0
 40
1.0
 10
2.518905313668129
 20
2.538822166079197
 30
0.0
 10
2.518905313668129
 20
2.54434501357772
 30
0.0
 10
2.523382466170723
 20
2.548822166079335
 30
0.0
 10
2.528905313668234
 20
2.548822166079404
 30
0.0
  0
SPLINE
  5
143
330
F6
100
AcDbEntity
  8
0
  6
Continuous
 62
   179
370
    25
100
AcDbSpline
210
0.0
220
0.0
230
1.0
 70
     8
 71
     3
 72
     8
 73
     4
 74
     0
 42
0.000000001
 43
0.00000001
 40
0.0
 40
0.0
 40
0.0
 40
0.0
 40
1.0
 40
1.0
 40
1.0
 40
1.0
 10
2.558905313148402
 20
2.548822139045805
 30
0.0
 10
2.564428160646016
 20
2.548822139045945
 30
0.0
 10
2.568905313148611
 20
2.544344986544191
 30
0.0
 10
2.568905313148576
 20
2.538822139045668
 30
0.0
  0
SPLINE
  5
144
330
F6
100
AcDbEntity
  8
0
  6
Continuous
 62
   179
370
    25
100
AcDbSpline
210
0.0
220
0.0
230
1.0
 70
     8
 71
     3
 72
     8
 73
     4
 74
     0
 42
0.000000001
 43
0.00000001
 40
0.0
 40
0.0
 40
0.0
 40
0.0
 40
1.0
 40
1.0
 40
1.0
 40
1.0
 10
2.568905225507884
 20
1.088822198372416
 30
0.0
 10
2.568905225508374
 20
1.080537927125189
 30
0.0
 10
2.562189496754763
 20
1.073822198372662
 30
0.0
 10
2.553905225507501
 20
1.073822198372173
 30
0.0
  0
SPLINE
  5
145
330
F6
100
AcDbEntity
  8
0
  6
Continuous
 62
   179
370
    25
100
AcDbSpline
210
0.0
220
0.0
230
1.0
 70
     8
 71
     3
 72
     8
 73
     4
 74
     0
 42
0.000000001
 43
0.00000001
 40
0.0
 40
0.0
 40
0.0
 40
0.0
 40
1.0
 40
1.0
 40
1.0
 40
1.0
 10
1.478905230615046
 20
1.073822198372173
 30
0.0
 10
1.473382383116522
 20
1.073822198372173
 30
0.0
 10
1.468905230614802
 20
1.078299350873018
 30
0.0
 10
1.468905230614872
 20
1.083822198372381
 30
0.0
  0
SPLINE
  5
146
330
F6
100
AcDbEntity
  8
0
  6
Continuous
 62
   179
370
    25
100
AcDbSpline
210
0.0
220
0.0
230
1.0
 70
     8
 71
     3
 72
     8
 73
     4
 74
     0
 42
0.000000001
 43
0.00000001
 40
0.0
 40
0.0
 40
0.0
 40
0.0
 40
1.0
 40
1.0
 40
1.0
 40
1.0
 10
1.468905251242222
 20
1.113822198580261
 30
0.0
 10
1.468905251242292
 20
1.119345046079625
 30
0.0
 10
1.473382403744151
 20
1.12382219858047
 30
0.0
 10
1.478905251242675
 20
1.12382219858047
 30
0.0
  0
SPLINE
  5
147
330
F6
100
AcDbEntity
  8
0
  6
Continuous
 62
   179
370
    25
100
AcDbSpline
210
0.0
220
0.0
230
1.0
 70
     8
 71
     3
 72
     8
 73
     4
 74
     0
 42
0.000000001
 43
0.00000001
 40
0.0
 40
0.0
 40
0.0
 40
0.0
 40
1.0
 40
1.0
 40
1.0
 40
1.0
 10
1.535740866445781
 20
1.12382219858047
 30
0.0
 10
1.542442332253677
 20
1.12382219858026
 30
0.0
 10
1.548330781371101
 20
1.128267404117396
 30
0.0
 10
1.550166878476569
 20
1.134712432543586
 30
0.0
  0
HATCH
  5
148
330
F6
100
AcDbEntity
  8
0
  6
Continuous
 62
     7
100
AcDbHatch
 10
0.0
 20
0.0
 30
0.0
210
0.0
220
0.0
230
1.0
  2
SOLID
 70
     1
 71
     0
 91
        1
 92
        0
 93
        3
 72
     1
 10
2.085893154895478
 20
1.803822198372535
 11
2.045893154895478
 21
1.803822198372535
 72
     1
 10
2.045893154895478
 20
1.803822198372535
 11
2.065893154895478
 21
1.673822198372535
 72
     1
 10
2.065893154895478
 20
1.673822198372535
 11
2.085893154895478
 21
1.803822198372535
 97
        0
 75
     0
 76
     1
 98
        1
 10
0.0
 20
0.0
  0
HATCH
  5
149
330
F6
100
AcDbEntity
  8
0
  6
Continuous
 62
     7
100
AcDbHatch
 10
0.0
 20
0.0
 30
0.0
210
0.0
220
0.0
230
1.0
  2
SOLID
 70
     1
 71
     0
 91
        1
 92
        0
 93
        3
 72
     1
 10
2.045893154895478
 20
2.41882219837165
 11
2.085893154895478
 21
2.41882219837165
 72
     1
 10
2.085893154895478
 20
2.41882219837165
 11
2.065893154895478
 21
2.548822198371651
 72
     1
 10
2.065893154895478
 20
2.548822198371651
 11
2.045893154895478
 21
2.41882219837165
 97
        0
 75
     0
 76
     1
 98
        1
 10
0.0
 20
0.0
  0
HATCH
  5
14A
330
F6
100
AcDbEntity
  8
0
  6
Continuous
 62
     7
100
AcDbHatch
 10
0.0
 20
0.0
 30
0.0
210
0.0
220
0.0
230
1.0
  2
SOLID
 70
     1
 71
     0
 91
        1
 92
        0
 93
        3
 72
     1
 10
1.132016153106546
 20
1.941822198371531
 11
1.092016153106546
 21
1.941822198371531
 72
     1
 10
1.092016153106546
 20
1.941822198371531
 11
1.112016153106546
 21
1.811822198371532
 72
     1
 10
1.112016153106546
 20
1.811822198371532
 11
1.132016153106546
 21
1.941822198371531
 97
        0
 75
     0
 76
     1
 98
        1
 10
0.0
 20
0.0
  0
HATCH
  5
14B
330
F6
100
AcDbEntity
  8
0
  6
Continuous
 62
     7
100
AcDbHatch
 10
0.0
 20
0.0
 30
0.0
210
0.0
220
0.0
230
1.0
  2
SOLID
 70
     1
 71
     0
 91
        1
 92
        0
 93
        3
 72
     1
 10
1.132016153106545
 20
1.253822198371469
 11
1.092016153106545
 21
1.253822198371469
 72
     1
 10
1.092016153106545
 20
1.253822198371469
 11
1.112016153106545
 21
1.123822198371468
 72
     1
 10
1.112016153106545
 20
1.123822198371468
 11
1.132016153106545
 21
1.253822198371469
 97
        0
 75
     0
 76
     1
 98
        1
 10
0.0
 20
0.0
  0
HATCH
  5
14C
330
F6
100
AcDbEntity
  8
0
  6
Continuous
 62
     7
100
AcDbHatch
 10
0.0
 20
0.0
 30
0.0
210
0.0
220
0.0
230
1.0
  2
SOLID
 70
     1
 71
     0
 91
        1
 92
        0
 93
        3
 72
     1
 10
1.598905230614837
 20
0.2705140396232569
 11
1.598905230614837
 21
0.3105140396232576
 72
     1
 10
1.598905230614837
 20
0.3105140396232576
 11
1.468905230614838
 21
0.2905140396232572
 72
     1
 10
1.468905230614838
 20
0.2905140396232572
 11
1.598905230614837
 21
0.2705140396232569
 97
        0
 75
     0
 76
     1
 98
        1
 10
0.0
 20
0.0
  0
HATCH
  5
14D
330
F6
100
AcDbEntity
  8
0
  6
Continuous
 62
     7
100
AcDbHatch
 10
0.0
 20
0.0
 30
0.0
210
0.0
220
0.0
230
1.0
  2
SOLID
 70
     1
 71
     0
 91
        1
 92
        0
 93
        3
 72
     1
 10
2.388905230614181
 20
0.3105140396232576
 11
2.388905230614181
 21
0.2705140396232569
 72
     1
 10
2.388905230614181
 20
0.2705140396232569
 11
2.518905230614181
 21
0.2905140396232572
 72
     1
 10
2.518905230614181
 20
0.2905140396232572
 11
2.388905230614181
 21
0.3105140396232576
 97
        0
 75
     0
 76
     1
 98
        1
 10
0.0
 20
0.0
  0
HATCH
  5
14E
330
F6
100
AcDbEntity
  8
0
  6
Continuous
 62
     7
100
AcDbHatch
 10
0.0
 20
0.0
 30
0.0
210
0.0
220
0.0
230
1.0
  2
SOLID
 70
     1
 71
     0
 91
        1
 92
        0
 93
        3
 72
     1
 10
1.369080983113
 20
0.994845469973965
 11
1.398313403109978
 21
0.9675422536593914
 72
     1
 10
1.398313403109978
 20
0.9675422536593914
 11
1.472432646133849
 21
1.076199226806853
 72
     1
 10
1.472432646133849
 20
1.076199226806853
 11
1.369080983113
 21
0.994845469973965
 97
        0
 75
     0
 76
     1
 98
        1
 10
0.0
 20
0.0
  0
MTEXT
  5
150
330
F6
100
AcDbEntity
  8
0
  6
Continuous
 62
     7
370
    18
100
AcDbMText
 10
0.0063408323
 20
0.8108995683
 30
0.0
 40
0.1377952756
 41
0.0
 71
     1
 72
     1
  1
1/16" LEG
  7
SLDTEXTSTYLE1
 73
     1
 44
1.0
  0
MTEXT
  5
151
330
F6
100
AcDbEntity
  8
0
  6
Continuous
 62
     7
370
    18
100
AcDbMText
 10
1.6488368139
 20
2.1935170161
 30
0.0
 40
0.1377952756
 41
0.0
 71
     1
 72
     1
  1
7/8"
  7
SLDTEXTSTYLE1
 73
     1
 44
1.0
  0
MTEXT
  5
152
330
F6
100
AcDbEntity
  8
0
  6
Continuous
 62
     7
370
    18
100
AcDbMText
 10
0.6541427713
 20
1.4424545803
 30
0.0
 40
0.14
 41
0.0
 71
     1
 72
     1
  1
1/2"
  7
SLDTEXTSTYLE1
 73
     1
 44
1.0
  0
MTEXT
  5
153
330
F6
100
AcDbEntity
  8
0
  6
Continuous
 62
     7
370
    18
100
AcDbMText
 10
1.9847520681
 20
0.8144387242
 30
0.0
 40
0.1354166667
 41
0.0
 71
     2
 72
     1
  1
1/2"
  7
SLDTEXTSTYLE1
 73
     1
 44
1.0
  0
MTEXT
  5
154
330
F6
100
AcDbEntity
  8
0
  6
Continuous
 62
     7
370
    18
100
AcDbMText
 10
1.9847520681
 20
0.5945130948
 30
0.0
 40
0.1354166667
 41
0.0
 71
     2
 72
     1
  1
3/4"
  7
SLDTEXTSTYLE1
 73
     1
 44
1.0
  0
MTEXT
  5
156
330
F6
100
AcDbEntity
  8
0
  6
Continuous
 62
     7
370
    18
100
AcDbMText
 10
1.9950023452
 20
0.3745874654
 30
0.0
 40
0.1354166667
 41
0.0
 71
     2
 72
     1
  1
- or -
  7
SLDTEXTSTYLE2
 73
     1
 44
1.0
  0
MTEXT
  5
157
330
F6
100
AcDbEntity
  8
0
  6
Continuous
 62
     7
370
    18
100
AcDbMText
 10
1.9903003905
 20
0.154661836
 30
0.0
 40
0.1354166667
 41
0.0
 71
     2
 72
     1
  1
1"
  7
SLDTEXTSTYLE1
 73
     1
 44
1.0
  0
MTEXT
  5
158
330
F6
100
AcDbEntity
  8
0
  6
Continuous
 62
     7
370
    18
100
AcDbMText
 10
0.6059618613
 20
2.1140154242
 30
0.0
 40
0.1377952756
 41
0.0
 71
     1
 72
     1
  1
3/16"
  7
SLDTEXTSTYLE1
 73
     1
 44
1.0
  0
ENDBLK
  5
F8
330
F6
100
AcDbEntity
  8
0
100
AcDbBlockEnd
  0
BLOCK
  5
15A
330
159
100
AcDbEntity
  8
0
100
AcDbBlockBegin
  2
Block13_
 70
     0
 10
0.0
 20
0.0
 30
0.0
  3
Block13_
  1

  0
LINE
  5
15C
330
159
100
AcDbEntity
  8
0
  6
Continuous
 62
   179
370
    25
100
AcDbLine
 10
4.3430209336
 20
0.6348409833
 30
0.0
 11
8.3189616332
 21
0.6348409833
 31
0.0
  0
LINE
  5
15D
330
159
100
AcDbEntity
  8
0
  6
Continuous
 62
   179
370
    25
100
AcDbLine
 10
8.3189616332
 20
0.2151590181
 30
0.0
 11
4.2441077204
 21
0.2151590181
 31
0.0
  0
LINE
  5
15E
330
159
100
AcDbEntity
  8
0
  6
Continuous
 62
   179
370
    25
100
AcDbLine
 10
8.3189616332
 20
0.6850000005
 30
0.0
 11
4.3318169031
 21
0.6850000005
 31
0.0
  0
LINE
  5
15F
330
159
100
AcDbEntity
  8
0
  6
Continuous
 62
   179
370
    25
100
AcDbLine
 10
8.3189616332
 20
0.6749999977
 30
0.0
 11
8.3189616332
 21
0.6850000005
 31
0.0
  0
LINE
  5
160
330
159
100
AcDbEntity
  8
0
  6
Continuous
 62
   179
370
    25
100
AcDbLine
 10
8.3189616332
 20
0.6749999977
 30
0.0
 11
4.3340497306
 21
0.6749999977
 31
0.0
  0
LINE
  5
161
330
159
100
AcDbEntity
  8
0
  6
Continuous
 62
   179
370
    25
100
AcDbLine
 10
8.3189616332
 20
0.863
 30
0.0
 11
4.2920566065
 21
0.863
 31
0.0
  0
LINE
  5
162
330
159
100
AcDbEntity
  8
0
  6
Continuous
 62
   179
370
    25
100
AcDbLine
 10
8.3189616332
 20
0.8529999998
 30
0.0
 11
4.2942906074
 21
0.8529999998
 31
0.0
  0
LINE
  5
163
330
159
100
AcDbEntity
  8
0
  6
Continuous
 62
   179
370
    25
100
AcDbLine
 10
8.3189616332
 20
0.8529999998
 30
0.0
 11
8.3189616332
 21
0.863
 31
0.0
  0
LINE
  5
164
330
159
100
AcDbEntity
  8
0
  6
Continuous
 62
   179
370
    25
100
AcDbLine
 10
8.3189616332
 20
0.1750000221
 30
0.0
 11
4.2530789235
 21
0.1750000221
 31
0.0
  0
LINE
  5
165
330
159
100
AcDbEntity
  8
0
  6
Continuous
 62
   179
370
    25
100
AcDbLine
 10
8.3189616332
 20
0.1649999642
 30
0.0
 11
4.255311751
 21
0.1649999642
 31
0.0
  0
LINE
  5
166
330
159
100
AcDbEntity
  8
0
  6
Continuous
 62
   179
370
    25
100
AcDbLine
 10
8.3189616332
 20
0.1649999642
 30
0.0
 11
8.3189616332
 21
0.1750000221
 31
0.0
  0
LINE
  5
167
330
159
100
AcDbEntity
  8
0
  6
Continuous
 62
   179
370
    25
100
AcDbLine
 10
8.3189616332
 20
0.1350000108
 30
0.0
 11
4.2620137536
 21
0.1350000108
 31
0.0
  0
LINE
  5
168
330
159
100
AcDbEntity
  8
0
  6
Continuous
 62
   179
370
    25
100
AcDbLine
 10
8.3189616332
 20
0.1649999642
 30
0.0
 11
8.3189616332
 21
0.1350000108
 31
0.0
  0
LINE
  5
169
330
159
100
AcDbEntity
  8
0
  6
Continuous
 62
   179
370
    25
100
AcDbLine
 10
8.3189616332
 20
0.8529999998
 30
0.0
 11
8.3189616332
 21
0.6850000005
 31
0.0
  0
LINE
  5
16A
330
159
100
AcDbEntity
  8
0
  6
Continuous
 62
   179
370
    25
100
AcDbLine
 10
8.3189616332
 20
0.1250000263
 30
0.0
 11
4.2642465811
 21
0.1250000263
 31
0.0
  0
LINE
  5
16B
330
159
100
AcDbEntity
  8
0
  6
Continuous
 62
   179
370
    25
100
AcDbLine
 10
8.3189616332
 20
0.1250000263
 30
0.0
 11
8.3189616332
 21
0.1350000108
 31
0.0
  0
LINE
  5
16C
330
159
100
AcDbEntity
  8
0
  6
Continuous
 62
   179
370
    25
100
AcDbLine
 10
8.3189616332
 20
0.6641097752
 30
0.0
 11
4.3364831958
 21
0.6641097752
 31
0.0
  0
LINE
  5
16D
330
159
100
AcDbEntity
  8
0
  6
Continuous
 62
   179
370
    25
100
AcDbLine
 10
8.3189616332
 20
0.6641097752
 30
0.0
 11
8.3189616332
 21
0.6749999977
 31
0.0
  0
LINE
  5
16E
330
159
100
AcDbEntity
  8
0
  6
Continuous
 62
   179
370
    25
100
AcDbLine
 10
8.3189616332
 20
0.1858902629
 30
0.0
 11
4.2506454582
 21
0.1858902629
 31
0.0
  0
LINE
  5
16F
330
159
100
AcDbEntity
  8
0
  6
Continuous
 62
   179
370
    25
100
AcDbLine
 10
8.3189616332
 20
0.1750000221
 30
0.0
 11
8.3189616332
 21
0.1858902629
 31
0.0
  0
LINE
  5
170
330
159
100
AcDbEntity
  8
0
  6
Continuous
 62
   179
370
    25
100
AcDbLine
 10
8.3189616332
 20
0.1858902629
 30
0.0
 11
8.3189616332
 21
0.2148586483
 31
0.0
  0
LINE
  5
171
330
159
100
AcDbEntity
  8
0
  6
Continuous
 62
   179
370
    25
100
AcDbLine
 10
8.3189616332
 20
1.3433481519
 30
0.0
 11
4.3417666548
 21
1.3433481519
 31
0.0
  0
LINE
  5
172
330
159
100
AcDbEntity
  8
0
  6
Continuous
 62
   179
370
    25
100
AcDbLine
 10
8.3189616332
 20
1.3350333846
 30
0.0
 11
4.3334513375
 21
1.3350333846
 31
0.0
  0
LINE
  5
173
330
159
100
AcDbEntity
  8
0
  6
Continuous
 62
   179
370
    25
100
AcDbLine
 10
8.3189616332
 20
1.3350333846
 30
0.0
 11
8.3189616332
 21
1.3433481519
 31
0.0
  0
LINE
  5
174
330
159
100
AcDbEntity
  8
0
  6
Continuous
 62
   179
370
    25
100
AcDbLine
 10
8.3189616332
 20
1.3649666421
 30
0.0
 11
4.3633850717
 21
1.3649666421
 31
0.0
  0
LINE
  5
175
330
159
100
AcDbEntity
  8
0
  6
Continuous
 62
   179
370
    25
100
AcDbLine
 10
8.3189616332
 20
1.3566518382
 30
0.0
 11
4.3550697544
 21
1.3566518382
 31
0.0
  0
LINE
  5
176
330
159
100
AcDbEntity
  8
0
  6
Continuous
 62
   179
370
    25
100
AcDbLine
 10
8.3189616332
 20
1.3566518382
 30
0.0
 11
8.3189616332
 21
1.3649666421
 31
0.0
  0
LINE
  5
177
330
159
100
AcDbEntity
  8
0
  6
Continuous
 62
   179
370
    25
100
AcDbLine
 10
8.3189616332
 20
1.3350333846
 30
0.0
 11
8.3189616332
 21
0.864048838
 31
0.0
  0
LINE
  5
178
330
159
100
AcDbEntity
  8
0
  6
Continuous
 62
   179
370
    25
100
AcDbLine
 10
8.3189616332
 20
1.5899999892
 30
0.0
 11
4.3223235727
 21
1.5899999892
 31
0.0
  0
LINE
  5
179
330
159
100
AcDbEntity
  8
0
  6
Continuous
 62
   179
370
    25
100
AcDbLine
 10
8.3189616332
 20
1.5899999892
 30
0.0
 11
8.3189616332
 21
1.3649666421
 31
0.0
  0
LINE
  5
17A
330
159
100
AcDbEntity
  8
0
  6
Continuous
 62
   179
370
    25
100
AcDbLine
 10
8.3189616332
 20
0.6282508127
 30
0.0
 11
8.3189616332
 21
0.2213690331
 31
0.0
  0
LINE
  5
17B
330
159
100
AcDbEntity
  8
0
  6
Continuous
 62
   179
370
    25
100
AcDbLine
 10
8.3189616332
 20
1.5999999737
 30
0.0
 11
4.3200895719
 21
1.5999999737
 31
0.0
  0
LINE
  5
17C
330
159
100
AcDbEntity
  8
0
  6
Continuous
 62
   179
370
    25
100
AcDbLine
 10
8.3189616332
 20
1.5899999892
 30
0.0
 11
8.3189616332
 21
1.5999999737
 31
0.0
  0
LINE
  5
17D
330
159
100
AcDbEntity
  8
0
  6
Continuous
 62
   179
370
    25
100
AcDbLine
 10
8.3189616332
 20
1.3433481519
 30
0.0
 11
8.3189616332
 21
1.3566518382
 31
0.0
  0
LINE
  5
17E
330
159
100
AcDbEntity
  8
0
  6
Continuous
 62
   179
370
    25
100
AcDbLine
 10
0.0000000279
 20
0.6348409833
 30
0.0
 11
4.1430202999
 21
0.6348409833
 31
0.0
  0
LINE
  5
17F
330
159
100
AcDbEntity
  8
0
  6
Continuous
 62
   179
370
    25
100
AcDbLine
 10
4.0441082692
 20
0.2151590181
 30
0.0
 11
0.0000000279
 21
0.2151590181
 31
0.0
  0
LINE
  5
180
330
159
100
AcDbEntity
  8
0
  6
Continuous
 62
   179
370
    25
100
AcDbLine
 10
4.1318162693
 20
0.6850000005
 30
0.0
 11
0.0000000279
 21
0.6850000005
 31
0.0
  0
LINE
  5
181
330
159
100
AcDbEntity
  8
0
  6
Continuous
 62
   179
370
    25
100
AcDbLine
 10
4.1340502702
 20
0.6749999977
 30
0.0
 11
0.0000000279
 21
0.6749999977
 31
0.0
  0
LINE
  5
182
330
159
100
AcDbEntity
  8
0
  6
Continuous
 62
   179
370
    25
100
AcDbLine
 10
0.0000000279
 20
0.6749999977
 30
0.0
 11
0.0000000279
 21
0.6850000005
 31
0.0
  0
LINE
  5
183
330
159
100
AcDbEntity
  8
0
  6
Continuous
 62
   179
370
    25
100
AcDbLine
 10
4.092055982
 20
0.863
 30
0.0
 11
0.0000000279
 21
0.863
 31
0.0
  0
LINE
  5
184
330
159
100
AcDbEntity
  8
0
  6
Continuous
 62
   179
370
    25
100
AcDbLine
 10
4.0942899828
 20
0.8529999998
 30
0.0
 11
0.0000000279
 21
0.8529999998
 31
0.0
  0
LINE
  5
185
330
159
100
AcDbEntity
  8
0
  6
Continuous
 62
   179
370
    25
100
AcDbLine
 10
0.0000000279
 20
0.8529999998
 30
0.0
 11
0.0000000279
 21
0.863
 31
0.0
  0
LINE
  5
186
330
159
100
AcDbEntity
  8
0
  6
Continuous
 62
   179
370
    25
100
AcDbLine
 10
4.0530782989
 20
0.1750000221
 30
0.0
 11
0.0000000279
 21
0.1750000221
 31
0.0
  0
LINE
  5
187
330
159
100
AcDbEntity
  8
0
  6
Continuous
 62
   179
370
    25
100
AcDbLine
 10
4.0553122998
 20
0.1649999642
 30
0.0
 11
0.0000000279
 21
0.1649999642
 31
0.0
  0
LINE
  5
188
330
159
100
AcDbEntity
  8
0
  6
Continuous
 62
   179
370
    25
100
AcDbLine
 10
0.0000000279
 20
0.1649999642
 30
0.0
 11
0.0000000279
 21
0.1750000221
 31
0.0
  0
LINE
  5
189
330
159
100
AcDbEntity
  8
0
  6
Continuous
 62
   179
370
    25
100
AcDbLine
 10
4.062013129
 20
0.1350000108
 30
0.0
 11
0.0000000279
 21
0.1350000108
 31
0.0
  0
LINE
  5
18A
330
159
100
AcDbEntity
  8
0
  6
Continuous
 62
   179
370
    25
100
AcDbLine
 10
0.0000000279
 20
0.1649999642
 30
0.0
 11
0.0000000279
 21
0.1350000108
 31
0.0
  0
LINE
  5
18B
330
159
100
AcDbEntity
  8
0
  6
Continuous
 62
   179
370
    25
100
AcDbLine
 10
0.0000000279
 20
0.8529999998
 30
0.0
 11
0.0000000279
 21
0.6850000005
 31
0.0
  0
LINE
  5
18C
330
159
100
AcDbEntity
  8
0
  6
Continuous
 62
   179
370
    25
100
AcDbLine
 10
4.0642471299
 20
0.1250000263
 30
0.0
 11
0.0000000279
 21
0.1250000263
 31
0.0
  0
LINE
  5
18D
330
159
100
AcDbEntity
  8
0
  6
Continuous
 62
   179
370
    25
100
AcDbLine
 10
0.0000000279
 20
0.1250000263
 30
0.0
 11
0.0000000279
 21
0.1350000108
 31
0.0
  0
LINE
  5
18E
330
159
100
AcDbEntity
  8
0
  6
Continuous
 62
   179
370
    25
100
AcDbLine
 10
4.1364825621
 20
0.6641097752
 30
0.0
 11
0.0000000279
 21
0.6641097752
 31
0.0
  0
LINE
  5
18F
330
159
100
AcDbEntity
  8
0
  6
Continuous
 62
   179
370
    25
100
AcDbLine
 10
0.0000000279
 20
0.6641097752
 30
0.0
 11
0.0000000279
 21
0.6749999977
 31
0.0
  0
LINE
  5
190
330
159
100
AcDbEntity
  8
0
  6
Continuous
 62
   179
370
    25
100
AcDbLine
 10
4.050646007
 20
0.1858902629
 30
0.0
 11
0.0000000279
 21
0.1858902629
 31
0.0
  0
LINE
  5
191
330
159
100
AcDbEntity
  8
0
  6
Continuous
 62
   179
370
    25
100
AcDbLine
 10
0.0000000279
 20
0.1750000221
 30
0.0
 11
0.0000000279
 21
0.1858902629
 31
0.0
  0
LINE
  5
192
330
159
100
AcDbEntity
  8
0
  6
Continuous
 62
   179
370
    25
100
AcDbLine
 10
0.0000000279
 20
0.1858902629
 30
0.0
 11
0.0000000279
 21
0.2148586483
 31
0.0
  0
LINE
  5
193
330
159
100
AcDbEntity
  8
0
  6
Continuous
 62
   179
370
    25
100
AcDbLine
 10
4.141766021
 20
1.3433481519
 30
0.0
 11
0.0000000279
 21
1.3433481519
 31
0.0
  0
LINE
  5
194
330
159
100
AcDbEntity
  8
0
  6
Continuous
 62
   179
370
    25
100
AcDbLine
 10
4.1334518771
 20
1.3350333846
 30
0.0
 11
0.0000000279
 21
1.3350333846
 31
0.0
  0
LINE
  5
195
330
159
100
AcDbEntity
  8
0
  6
Continuous
 62
   179
370
    25
100
AcDbLine
 10
0.0000000279
 20
1.3350333846
 30
0.0
 11
0.0000000279
 21
1.3433481519
 31
0.0
  0
LINE
  5
196
330
159
100
AcDbEntity
  8
0
  6
Continuous
 62
   179
370
    25
100
AcDbLine
 10
4.1633844377
 20
1.3649666421
 30
0.0
 11
0.0000000279
 21
1.3649666421
 31
0.0
  0
LINE
  5
197
330
159
100
AcDbEntity
  8
0
  6
Continuous
 62
   179
370
    25
100
AcDbLine
 10
4.1550702937
 20
1.3566518382
 30
0.0
 11
0.0000000279
 21
1.3566518382
 31
0.0
  0
LINE
  5
198
330
159
100
AcDbEntity
  8
0
  6
Continuous
 62
   179
370
    25
100
AcDbLine
 10
0.0000000279
 20
1.3566518382
 30
0.0
 11
0.0000000279
 21
1.3649666421
 31
0.0
  0
LINE
  5
199
330
159
100
AcDbEntity
  8
0
  6
Continuous
 62
   179
370
    25
100
AcDbLine
 10
0.0000000279
 20
1.3350333846
 30
0.0
 11
0.0000000279
 21
0.864048838
 31
0.0
  0
LINE
  5
19A
330
159
100
AcDbEntity
  8
0
  6
Continuous
 62
   179
370
    25
100
AcDbLine
 10
4.122322939
 20
1.5899999892
 30
0.0
 11
0.0000000279
 21
1.5899999892
 31
0.0
  0
LINE
  5
19B
330
159
100
AcDbEntity
  8
0
  6
Continuous
 62
   179
370
    25
100
AcDbLine
 10
0.0000000279
 20
1.5899999892
 30
0.0
 11
0.0000000279
 21
1.3649666421
 31
0.0
  0
LINE
  5
19C
330
159
100
AcDbEntity
  8
0
  6
Continuous
 62
   179
370
    25
100
AcDbLine
 10
0.0000000279
 20
0.6282508127
 30
0.0
 11
0.0000000279
 21
0.2213690331
 31
0.0
  0
LINE
  5
19D
330
159
100
AcDbEntity
  8
0
  6
Continuous
 62
   179
370
    25
100
AcDbLine
 10
4.1200889381
 20
1.5999999737
 30
0.0
 11
0.0000000279
 21
1.5999999737
 31
0.0
  0
LINE
  5
19E
330
159
100
AcDbEntity
  8
0
  6
Continuous
 62
   179
370
    25
100
AcDbLine
 10
0.0000000279
 20
1.5899999892
 30
0.0
 11
0.0000000279
 21
1.5999999737
 31
0.0
  0
LINE
  5
19F
330
159
100
AcDbEntity
  8
0
  6
Continuous
 62
   179
370
    25
100
AcDbLine
 10
0.0000000279
 20
1.3433481519
 30
0.0
 11
0.0000000279
 21
1.3566518382
 31
0.0
  0
LINE
  5
1A0
330
159
100
AcDbEntity
  8
0
  6
Continuous
 62
     7
370
    18
100
AcDbLine
 10
0.0
 20
2.084753967
 30
0.0
 11
0.13
 21
2.064753967
 31
0.0
  0
LINE
  5
1A1
330
159
100
AcDbEntity
  8
0
  6
Continuous
 62
     7
370
    18
100
AcDbLine
 10
0.13
 20
2.064753967
 30
0.0
 11
0.13
 21
2.104753967
 31
0.0
  0
LINE
  5
1A2
330
159
100
AcDbEntity
  8
0
  6
Continuous
 62
     7
370
    18
100
AcDbLine
 10
0.13
 20
2.104753967
 30
0.0
 11
0.0
 21
2.084753967
 31
0.0
  0
LINE
  5
1A3
330
159
100
AcDbEntity
  8
0
  6
Continuous
 62
     7
370
    18
100
AcDbLine
 10
8.3189616611
 20
2.084753967
 30
0.0
 11
8.1889616611
 21
2.104753967
 31
0.0
  0
LINE
  5
1A4
330
159
100
AcDbEntity
  8
0
  6
Continuous
 62
     7
370
    18
100
AcDbLine
 10
8.1889616611
 20
2.104753967
 30
0.0
 11
8.1889616611
 21
2.064753967
 31
0.0
  0
LINE
  5
1A5
330
159
100
AcDbEntity
  8
0
  6
Continuous
 62
     7
370
    18
100
AcDbLine
 10
8.1889616611
 20
2.064753967
 30
0.0
 11
8.3189616611
 21
2.084753967
 31
0.0
  0
LINE
  5
1A6
330
159
100
AcDbEntity
  8
0
  6
Continuous
 62
     7
370
    18
100
AcDbLine
 10
0.0
 20
1.7
 30
0.0
 11
0.0
 21
2.1241240458
 31
0.0
  0
LINE
  5
1A7
330
159
100
AcDbEntity
  8
0
  6
Continuous
 62
     7
370
    18
100
AcDbLine
 10
8.3189616611
 20
1.7
 30
0.0
 11
8.3189616611
 21
2.1241240458
 31
0.0
  0
LINE
  5
1A8
330
159
100
AcDbEntity
  8
0
  6
Continuous
 62
     7
370
    18
100
AcDbLine
 10
0.0
 20
2.084753967
 30
0.0
 11
8.3189616611
 21
2.084753967
 31
0.0
  0
LINE
  5
1A9
330
159
100
AcDbEntity
  8
0
  6
Continuous
 62
     7
370
    18
100
AcDbLine
 10
8.750572174
 20
1.6
 30
0.0
 11
8.730572174
 21
1.47
 31
0.0
  0
LINE
  5
1AA
330
159
100
AcDbEntity
  8
0
  6
Continuous
 62
     7
370
    18
100
AcDbLine
 10
8.730572174
 20
1.47
 30
0.0
 11
8.770572174
 21
1.47
 31
0.0
  0
LINE
  5
1AB
330
159
100
AcDbEntity
  8
0
  6
Continuous
 62
     7
370
    18
100
AcDbLine
 10
8.770572174
 20
1.47
 30
0.0
 11
8.750572174
 21
1.6
 31
0.0
  0
LINE
  5
1AC
330
159
100
AcDbEntity
  8
0
  6
Continuous
 62
     7
370
    18
100
AcDbLine
 10
8.750572174
 20
0.125
 30
0.0
 11
8.770572174
 21
0.255
 31
0.0
  0
LINE
  5
1AD
330
159
100
AcDbEntity
  8
0
  6
Continuous
 62
     7
370
    18
100
AcDbLine
 10
8.770572174
 20
0.255
 30
0.0
 11
8.730572174
 21
0.255
 31
0.0
  0
LINE
  5
1AE
330
159
100
AcDbEntity
  8
0
  6
Continuous
 62
     7
370
    18
100
AcDbLine
 10
8.730572174
 20
0.255
 30
0.0
 11
8.750572174
 21
0.125
 31
0.0
  0
LINE
  5
1AF
330
159
100
AcDbEntity
  8
0
  6
Continuous
 62
     7
370
    18
100
AcDbLine
 10
8.4189616611
 20
1.6
 30
0.0
 11
8.7899422528
 21
1.6
 31
0.0
  0
LINE
  5
1B0
330
159
100
AcDbEntity
  8
0
  6
Continuous
 62
     7
370
    18
100
AcDbLine
 10
8.4189616611
 20
0.125
 30
0.0
 11
8.7899422528
 21
0.125
 31
0.0
  0
LINE
  5
1B1
330
159
100
AcDbEntity
  8
0
  6
Continuous
 62
     7
370
    18
100
AcDbLine
 10
8.750572174
 20
1.6
 30
0.0
 11
8.750572174
 21
0.125
 31
0.0
  0
LINE
  5
1B2
330
159
100
AcDbEntity
  8
0
  6
HIDDEN
 62
   179
370
    18
100
AcDbLine
 10
4.0921682322
 20
1.725
 30
0.0
 11
4.1709083897
 21
1.3724901575
 31
0.0
  0
LINE
  5
1B3
330
159
100
AcDbEntity
  8
0
  6
HIDDEN
 62
   179
370
    18
100
AcDbLine
 10
4.1709083897
 20
1.3724901575
 30
0.0
 11
4.0134280748
 21
1.2150098425
 31
0.0
  0
LINE
  5
1B4
330
159
100
AcDbEntity
  8
0
  6
HIDDEN
 62
   179
370
    18
100
AcDbLine
 10
4.0134280748
 20
1.2150098425
 30
0.0
 11
4.1709083897
 21
0.5099901575
 31
0.0
  0
LINE
  5
1B5
330
159
100
AcDbEntity
  8
0
  6
HIDDEN
 62
   179
370
    18
100
AcDbLine
 10
4.1709083897
 20
0.5099901575
 30
0.0
 11
4.0134280748
 21
0.3525098425
 31
0.0
  0
LINE
  5
1B6
330
159
100
AcDbEntity
  8
0
  6
HIDDEN
 62
   179
370
    18
100
AcDbLine
 10
4.0134280748
 20
0.3525098425
 30
0.0
 11
4.0921682322
 21
0.0
 31
0.0
  0
LINE
  5
1B7
330
159
100
AcDbEntity
  8
0
  6
HIDDEN
 62
   179
370
    18
100
AcDbLine
 10
4.2921682322
 20
1.725
 30
0.0
 11
4.3709083897
 21
1.3724901575
 31
0.0
  0
LINE
  5
1B8
330
159
100
AcDbEntity
  8
0
  6
HIDDEN
 62
   179
370
    18
100
AcDbLine
 10
4.3709083897
 20
1.3724901575
 30
0.0
 11
4.2134280748
 21
1.2150098425
 31
0.0
  0
LINE
  5
1B9
330
159
100
AcDbEntity
  8
0
  6
HIDDEN
 62
   179
370
    18
100
AcDbLine
 10
4.2134280748
 20
1.2150098425
 30
0.0
 11
4.3709083897
 21
0.5099901575
 31
0.0
  0
LINE
  5
1BA
330
159
100
AcDbEntity
  8
0
  6
HIDDEN
 62
   179
370
    18
100
AcDbLine
 10
4.3709083897
 20
0.5099901575
 30
0.0
 11
4.2134280748
 21
0.3525098425
 31
0.0
  0
LINE
  5
1BB
330
159
100
AcDbEntity
  8
0
  6
HIDDEN
 62
   179
370
    18
100
AcDbLine
 10
4.2134280748
 20
0.3525098425
 30
0.0
 11
4.2921682322
 21
0.0
 31
0.0
  0
HATCH
  5
1BC
330
159
100
AcDbEntity
  8
0
  6
Continuous
 62
     7
100
AcDbHatch
 10
0.0
 20
0.0
 30
0.0
210
0.0
220
0.0
230
1.0
  2
SOLID
 70
     1
 71
     0
 91
        1
 92
        0
 93
        3
 72
     1
 10
0.1300000000000011
 20
2.064753967026618
 11
0.1300000000000011
 21
2.104753967026618
 72
     1
 10
0.1300000000000011
 20
2.104753967026618
 11
0.0000000000000011
 21
2.084753967026617
 72
     1
 10
0.0000000000000011
 20
2.084753967026617
 11
0.1300000000000011
 21
2.064753967026618
 97
        0
 75
     0
 76
     1
 98
        1
 10
0.0
 20
0.0
  0
HATCH
  5
1BD
330
159
100
AcDbEntity
  8
0
  6
Continuous
 62
     7
100
AcDbHatch
 10
0.0
 20
0.0
 30
0.0
210
0.0
220
0.0
230
1.0
  2
SOLID
 70
     1
 71
     0
 91
        1
 92
        0
 93
        3
 72
     1
 10
8.188961661116197
 20
2.104753967026618
 11
8.188961661116197
 21
2.064753967026618
 72
     1
 10
8.188961661116197
 20
2.064753967026618
 11
8.318961661116198
 21
2.084753967026617
 72
     1
 10
8.318961661116198
 20
2.084753967026617
 11
8.188961661116197
 21
2.104753967026618
 97
        0
 75
     0
 76
     1
 98
        1
 10
0.0
 20
0.0
  0
HATCH
  5
1BE
330
159
100
AcDbEntity
  8
0
  6
Continuous
 62
     7
100
AcDbHatch
 10
0.0
 20
0.0
 30
0.0
210
0.0
220
0.0
230
1.0
  2
SOLID
 70
     1
 71
     0
 91
        1
 92
        0
 93
        3
 72
     1
 10
8.730572174048607
 20
1.46999999999941
 11
8.770572174048608
 21
1.46999999999941
 72
     1
 10
8.770572174048608
 20
1.46999999999941
 11
8.750572174048607
 21
1.599999999999409
 72
     1
 10
8.750572174048607
 20
1.599999999999409
 11
8.730572174048607
 21
1.46999999999941
 97
        0
 75
     0
 76
     1
 98
        1
 10
0.0
 20
0.0
  0
HATCH
  5
1BF
330
159
100
AcDbEntity
  8
0
  6
Continuous
 62
     7
100
AcDbHatch
 10
0.0
 20
0.0
 30
0.0
210
0.0
220
0.0
230
1.0
  2
SOLID
 70
     1
 71
     0
 91
        1
 92
        0
 93
        3
 72
     1
 10
8.770572174048608
 20
0.2550000000000015
 11
8.730572174048607
 21
0.2550000000000015
 72
     1
 10
8.730572174048607
 20
0.2550000000000015
 11
8.750572174048607
 21
0.1250000000000015
 72
     1
 10
8.750572174048607
 20
0.1250000000000015
 11
8.770572174048608
 21
0.2550000000000015
 97
        0
 75
     0
 76
     1
 98
        1
 10
0.0
 20
0.0
  0
MTEXT
  5
1C0
330
159
100
AcDbEntity
  8
0
  6
Continuous
 62
     7
370
    18
100
AcDbMText
 10
3.151530142
 20
2.3928010624
 30
0.0
 40
0.1666666667
 41
0.0
 71
     1
 72
     1
  1
LENGTHS UP TO 20'
  7
SLDTEXTSTYLE1
 73
     1
 44
1.0
  0
MTEXT
  5
1C2
330
159
100
AcDbEntity
  8
0
  6
Continuous
 62
     7
370
    18
100
AcDbMText
 10
8.8442338588
 20
0.9323361922
 30
0.0
 40
0.1377952756
 41
0.0
 71
     1
 72
     1
  1
1 - 1/2"
  7
SLDTEXTSTYLE3
 73
     1
 44
1.0
  0
ENDBLK
  5
15B
330
159
100
AcDbEntity
  8
0
100
AcDbBlockEnd
  0
BLOCK
  5
1C4
330
1C3
100
AcDbEntity
  8
0
100
AcDbBlockBegin
  2
Block14_
 70
     0
 10
0.0
 20
0.0
 30
0.0
  3
Block14_
  1

  0
LINE
  5
1C6
330
1C3
100
AcDbEntity
  8
0
  6
Continuous
 62
   179
370
    25
100
AcDbLine
 10
4.3285205409
 20
0.3799204916
 30
0.0
 11
8.6686742587
 21
0.3799204916
 31
0.0
  0
LINE
  5
1C7
330
1C3
100
AcDbEntity
  8
0
  6
Continuous
 62
   179
370
    25
100
AcDbLine
 10
8.6686601789
 20
0.1700795091
 30
0.0
 11
4.3285205409
 21
0.1700795091
 31
0.0
  0
LINE
  5
1C8
330
1C3
100
AcDbEntity
  8
0
  6
Continuous
 62
   179
370
    25
100
AcDbLine
 10
8.7111009153
 20
0.4050000002
 30
0.0
 11
4.3285205409
 21
0.4050000002
 31
0.0
  0
LINE
  5
1C9
330
1C3
100
AcDbEntity
  8
0
  6
Continuous
 62
   179
370
    25
100
AcDbLine
 10
8.7075651161
 20
0.3999999988
 30
0.0
 11
4.3285205409
 21
0.3999999988
 31
0.0
  0
LINE
  5
1CA
330
1C3
100
AcDbEntity
  8
0
  6
Continuous
 62
   179
370
    25
100
AcDbLine
 10
8.7075651161
 20
0.494
 30
0.0
 11
4.3285205409
 21
0.494
 31
0.0
  0
LINE
  5
1CB
330
1C3
100
AcDbEntity
  8
0
  6
Continuous
 62
   179
370
    25
100
AcDbLine
 10
8.7111009153
 20
0.4889999999
 30
0.0
 11
4.3285205409
 21
0.4889999999
 31
0.0
  0
LINE
  5
1CC
330
1C3
100
AcDbEntity
  8
0
  6
Continuous
 62
   179
370
    25
100
AcDbLine
 10
8.7075651161
 20
0.150000011
 30
0.0
 11
4.3285205409
 21
0.150000011
 31
0.0
  0
LINE
  5
1CD
330
1C3
100
AcDbEntity
  8
0
  6
Continuous
 62
   179
370
    25
100
AcDbLine
 10
8.7111009153
 20
0.1449999821
 30
0.0
 11
4.3285205409
 21
0.1449999821
 31
0.0
  0
LINE
  5
1CE
330
1C3
100
AcDbEntity
  8
0
  6
Continuous
 62
   179
370
    25
100
AcDbLine
 10
8.7111009153
 20
0.1300000054
 30
0.0
 11
4.3285205409
 21
0.1300000054
 31
0.0
  0
LINE
  5
1CF
330
1C3
100
AcDbEntity
  8
0
  6
Continuous
 62
   179
370
    25
100
AcDbLine
 10
8.7075651161
 20
0.1250000132
 30
0.0
 11
4.3285205409
 21
0.1250000132
 31
0.0
  0
LINE
  5
1D0
330
1C3
100
AcDbEntity
  8
0
  6
Continuous
 62
   179
370
    25
100
AcDbLine
 10
8.7111009153
 20
0.1449999821
 30
0.0
 11
8.7111009153
 21
0.1300000054
 31
0.0
  0
LINE
  5
1D1
330
1C3
100
AcDbEntity
  8
0
  6
Continuous
 62
   179
370
    25
100
AcDbLine
 10
8.7111009153
 20
0.4889999999
 30
0.0
 11
8.7111009153
 21
0.4050000002
 31
0.0
  0
LINE
  5
1D2
330
1C3
100
AcDbEntity
  8
0
  6
Continuous
 62
   179
370
    25
100
AcDbLine
 10
8.6823704205
 20
0.3945548876
 30
0.0
 11
4.3285205409
 21
0.3945548876
 31
0.0
  0
LINE
  5
1D3
330
1C3
100
AcDbEntity
  8
0
  6
Continuous
 62
   179
370
    25
100
AcDbLine
 10
8.6823704205
 20
0.1554451315
 30
0.0
 11
4.3285205409
 21
0.1554451315
 31
0.0
  0
LINE
  5
1D4
330
1C3
100
AcDbEntity
  8
0
  6
Continuous
 62
   179
370
    25
100
AcDbLine
 10
8.3382985019
 20
0.7341740759
 30
0.0
 11
4.3285205409
 21
0.7341740759
 31
0.0
  0
LINE
  5
1D5
330
1C3
100
AcDbEntity
  8
0
  6
Continuous
 62
   179
370
    25
100
AcDbLine
 10
8.3398695771
 20
0.7300166923
 30
0.0
 11
4.3285205409
 21
0.7300166923
 31
0.0
  0
LINE
  5
1D6
330
1C3
100
AcDbEntity
  8
0
  6
Continuous
 62
   179
370
    25
100
AcDbLine
 10
8.3398695771
 20
0.7449833211
 30
0.0
 11
4.3285205409
 21
0.7449833211
 31
0.0
  0
LINE
  5
1D7
330
1C3
100
AcDbEntity
  8
0
  6
Continuous
 62
   179
370
    25
100
AcDbLine
 10
8.3382985019
 20
0.7408259191
 30
0.0
 11
4.3285205409
 21
0.7408259191
 31
0.0
  0
LINE
  5
1D8
330
1C3
100
AcDbEntity
  8
0
  6
Continuous
 62
   179
370
    25
100
AcDbLine
 10
8.3398695771
 20
0.3799204916
 30
0.0
 11
8.3398695771
 21
0.1700795091
 31
0.0
  0
LINE
  5
1D9
330
1C3
100
AcDbEntity
  8
0
  6
Continuous
 62
   179
370
    25
100
AcDbLine
 10
8.3398695771
 20
0.7300166923
 30
0.0
 11
8.3398695771
 21
0.494
 31
0.0
  0
LINE
  5
1DA
330
1C3
100
AcDbEntity
  8
0
  6
Continuous
 62
   179
370
    25
100
AcDbLine
 10
8.3398695771
 20
0.8574999946
 30
0.0
 11
4.3285205409
 21
0.8574999946
 31
0.0
  0
LINE
  5
1DB
330
1C3
100
AcDbEntity
  8
0
  6
Continuous
 62
   179
370
    25
100
AcDbLine
 10
8.3398695771
 20
0.8574999946
 30
0.0
 11
8.3398695771
 21
0.7449833211
 31
0.0
  0
LINE
  5
1DC
330
1C3
100
AcDbEntity
  8
0
  6
Continuous
 62
   179
370
    25
100
AcDbLine
 10
8.336333778
 20
0.8624999868
 30
0.0
 11
4.3285205409
 21
0.8624999868
 31
0.0
  0
LINE
  5
1DD
330
1C3
100
AcDbEntity
  8
0
  6
Continuous
 62
   179
370
    25
100
AcDbLine
 10
0.3464830907
 20
0.3799204916
 30
0.0
 11
4.3282205423
 21
0.3799204916
 31
0.0
  0
LINE
  5
1DE
330
1C3
100
AcDbEntity
  8
0
  6
Continuous
 62
   179
370
    25
100
AcDbLine
 10
4.3282205423
 20
0.1700795091
 30
0.0
 11
0.3464684242
 21
0.1700795091
 31
0.0
  0
LINE
  5
1DF
330
1C3
100
AcDbEntity
  8
0
  6
Continuous
 62
   179
370
    25
100
AcDbLine
 10
0.3853733615
 20
0.150000011
 30
0.0
 11
0.3652790869
 21
0.150000011
 31
0.0
  0
LINE
  5
1E0
330
1C3
100
AcDbEntity
  8
0
  6
Continuous
 62
   179
370
    25
100
AcDbLine
 10
0.3889091606
 20
0.1449999821
 30
0.0
 11
0.3889091606
 21
0.1300000054
 31
0.0
  0
LINE
  5
1E1
330
1C3
100
AcDbEntity
  8
0
  6
Continuous
 62
   179
370
    25
100
AcDbLine
 10
0.3853733615
 20
0.1250000132
 30
0.0
 11
0.0053034054
 21
0.1250000132
 31
0.0
  0
LINE
  5
1E2
330
1C3
100
AcDbEntity
  8
0
  6
Continuous
 62
   179
370
    25
100
AcDbLine
 10
0.0
 20
0.1324999832
 30
0.0
 11
0.0
 21
0.8574999946
 31
0.0
  0
LINE
  5
1E3
330
1C3
100
AcDbEntity
  8
0
  6
Continuous
 62
   179
370
    25
100
AcDbLine
 10
0.0035357992
 20
0.8624999868
 30
0.0
 11
0.01414261
 21
0.8624999868
 31
0.0
  0
LINE
  5
1E4
330
1C3
100
AcDbEntity
  8
0
  6
Continuous
 62
   179
370
    25
100
AcDbLine
 10
0.0176778225
 20
0.8574999946
 30
0.0
 11
0.0176778225
 21
0.7449833211
 31
0.0
  0
LINE
  5
1E5
330
1C3
100
AcDbEntity
  8
0
  6
Continuous
 62
   179
370
    25
100
AcDbLine
 10
0.0176778225
 20
0.7300166923
 30
0.0
 11
0.0176778225
 21
0.4299999981
 31
0.0
  0
LINE
  5
1E6
330
1C3
100
AcDbEntity
  8
0
  6
Continuous
 62
   179
370
    25
100
AcDbLine
 10
0.0212136216
 20
0.4250000013
 30
0.0
 11
0.367695539
 21
0.4250000013
 31
0.0
  0
LINE
  5
1E7
330
1C3
100
AcDbEntity
  8
0
  6
Continuous
 62
   179
370
    25
100
AcDbLine
 10
0.3712313382
 20
0.4299999981
 30
0.0
 11
0.3712313382
 21
0.4889999999
 31
0.0
  0
LINE
  5
1E8
330
1C3
100
AcDbEntity
  8
0
  6
Continuous
 62
   179
370
    25
100
AcDbLine
 10
0.3747671373
 20
0.494
 30
0.0
 11
0.3853733615
 21
0.494
 31
0.0
  0
LINE
  5
1E9
330
1C3
100
AcDbEntity
  8
0
  6
Continuous
 62
   179
370
    25
100
AcDbLine
 10
0.3889091606
 20
0.4889999999
 30
0.0
 11
0.3889091606
 21
0.4050000002
 31
0.0
  0
LINE
  5
1EA
330
1C3
100
AcDbEntity
  8
0
  6
Continuous
 62
   179
370
    25
100
AcDbLine
 10
0.3853733615
 20
0.3999999988
 30
0.0
 11
0.3652790869
 21
0.3999999988
 31
0.0
  0
LINE
  5
1EB
330
1C3
100
AcDbEntity
  8
0
  6
Continuous
 62
   179
370
    25
100
AcDbLine
 10
0.0212136216
 20
0.3999999988
 30
0.0
 11
0.327672428
 21
0.3999999988
 31
0.0
  0
LINE
  5
1EC
330
1C3
100
AcDbEntity
  8
0
  6
Continuous
 62
   179
370
    25
100
AcDbLine
 10
0.0176778225
 20
0.3949999974
 30
0.0
 11
0.0176778225
 21
0.1550000033
 31
0.0
  0
LINE
  5
1ED
330
1C3
100
AcDbEntity
  8
0
  6
Continuous
 62
   179
370
    25
100
AcDbLine
 10
0.0212136216
 20
0.150000011
 30
0.0
 11
0.327672428
 21
0.150000011
 31
0.0
  0
LINE
  5
1EE
330
1C3
100
AcDbEntity
  8
0
  6
Continuous
 62
   179
370
    25
100
AcDbLine
 10
4.3282205423
 20
0.4050000002
 30
0.0
 11
0.3889091606
 21
0.4050000002
 31
0.0
  0
LINE
  5
1EF
330
1C3
100
AcDbEntity
  8
0
  6
Continuous
 62
   179
370
    25
100
AcDbLine
 10
4.3282205423
 20
0.3999999988
 30
0.0
 11
0.3853733615
 21
0.3999999988
 31
0.0
  0
LINE
  5
1F0
330
1C3
100
AcDbEntity
  8
0
  6
Continuous
 62
   179
370
    25
100
AcDbLine
 10
4.3282205423
 20
0.494
 30
0.0
 11
0.3853733615
 21
0.494
 31
0.0
  0
LINE
  5
1F1
330
1C3
100
AcDbEntity
  8
0
  6
Continuous
 62
   179
370
    25
100
AcDbLine
 10
4.3282205423
 20
0.4889999999
 30
0.0
 11
0.3889091606
 21
0.4889999999
 31
0.0
  0
LINE
  5
1F2
330
1C3
100
AcDbEntity
  8
0
  6
Continuous
 62
   179
370
    25
100
AcDbLine
 10
4.3282205423
 20
0.150000011
 30
0.0
 11
0.3853733615
 21
0.150000011
 31
0.0
  0
LINE
  5
1F3
330
1C3
100
AcDbEntity
  8
0
  6
Continuous
 62
   179
370
    25
100
AcDbLine
 10
4.3282205423
 20
0.1449999821
 30
0.0
 11
0.3889091606
 21
0.1449999821
 31
0.0
  0
LINE
  5
1F4
330
1C3
100
AcDbEntity
  8
0
  6
Continuous
 62
   179
370
    25
100
AcDbLine
 10
4.3282205423
 20
0.1300000054
 30
0.0
 11
0.3889091606
 21
0.1300000054
 31
0.0
  0
LINE
  5
1F5
330
1C3
100
AcDbEntity
  8
0
  6
Continuous
 62
   179
370
    25
100
AcDbLine
 10
4.3282205423
 20
0.1250000132
 30
0.0
 11
0.3853733615
 21
0.1250000132
 31
0.0
  0
LINE
  5
1F6
330
1C3
100
AcDbEntity
  8
0
  6
Continuous
 62
   179
370
    25
100
AcDbLine
 10
4.3282205423
 20
0.3945548876
 30
0.0
 11
0.3601786659
 21
0.3945548876
 31
0.0
  0
LINE
  5
1F7
330
1C3
100
AcDbEntity
  8
0
  6
Continuous
 62
   179
370
    25
100
AcDbLine
 10
4.3282205423
 20
0.1554451315
 30
0.0
 11
0.3601786659
 21
0.1554451315
 31
0.0
  0
LINE
  5
1F8
330
1C3
100
AcDbEntity
  8
0
  6
Continuous
 62
   179
370
    25
100
AcDbLine
 10
4.3282205423
 20
0.7341740759
 30
0.0
 11
0.0161067473
 21
0.7341740759
 31
0.0
  0
LINE
  5
1F9
330
1C3
100
AcDbEntity
  8
0
  6
Continuous
 62
   179
370
    25
100
AcDbLine
 10
4.3282205423
 20
0.7300166923
 30
0.0
 11
0.0176778225
 21
0.7300166923
 31
0.0
  0
LINE
  5
1FA
330
1C3
100
AcDbEntity
  8
0
  6
Continuous
 62
   179
370
    25
100
AcDbLine
 10
4.3282205423
 20
0.7449833211
 30
0.0
 11
0.0176778225
 21
0.7449833211
 31
0.0
  0
LINE
  5
1FB
330
1C3
100
AcDbEntity
  8
0
  6
Continuous
 62
   179
370
    25
100
AcDbLine
 10
4.3282205423
 20
0.7408259191
 30
0.0
 11
0.0161067473
 21
0.7408259191
 31
0.0
  0
LINE
  5
1FC
330
1C3
100
AcDbEntity
  8
0
  6
Continuous
 62
   179
370
    25
100
AcDbLine
 10
4.3282205423
 20
0.8574999946
 30
0.0
 11
0.0176778225
 21
0.8574999946
 31
0.0
  0
LINE
  5
1FD
330
1C3
100
AcDbEntity
  8
0
  6
Continuous
 62
   179
370
    25
100
AcDbLine
 10
4.3282205423
 20
0.8624999868
 30
0.0
 11
0.01414261
 21
0.8624999868
 31
0.0
  0
LINE
  5
1FE
330
1C3
100
AcDbEntity
  8
0
  6
Continuous
 62
     8
370
    25
100
AcDbLine
 10
0.3712313382
 20
0.4299999981
 30
0.0
 11
0.0176778225
 21
0.4299999981
 31
0.0
  0
LINE
  5
1FF
330
1C3
100
AcDbEntity
  8
0
  6
Continuous
 62
     8
370
    25
100
AcDbLine
 10
0.3326314641
 20
0.3949999974
 30
0.0
 11
0.0176778225
 21
0.3949999974
 31
0.0
  0
LINE
  5
200
330
1C3
100
AcDbEntity
  8
0
  6
Continuous
 62
     8
370
    25
100
AcDbLine
 10
0.3326167976
 20
0.1550000033
 30
0.0
 11
0.0176778225
 21
0.1550000033
 31
0.0
  0
SPLINE
  5
201
330
1C3
100
AcDbEntity
  8
0
  6
Continuous
 62
   179
370
    25
100
AcDbSpline
210
0.0
220
0.0
230
1.0
 70
     8
 71
     3
 72
    11
 73
     7
 74
     0
 42
0.000000001
 43
0.00000001
 40
0.0
 40
0.0
 40
0.0
 40
0.0
 40
0.2390313377881464
 40
0.5039366623420154
 40
0.7402283613235203
 40
0.9999999999999999
 40
0.9999999999999999
 40
0.9999999999999999
 40
0.9999999999999999
 10
8.7075651161314
 20
0.3999999988411999
 30
0.0
 10
8.70810338974412
 20
0.4001098225695779
 30
0.0
 10
8.709238202485952
 20
0.4003413579140096
 30
0.0
 10
8.710328420590736
 20
0.4017220249042913
 30
0.0
 10
8.710983456772043
 20
0.4033008593715815
 30
0.0
 10
8.711060546168628
 20
0.4044160254070421
 30
0.0
 10
8.711100915285547
 20
0.4050000002474237
 30
0.0
  0
SPLINE
  5
202
330
1C3
100
AcDbEntity
  8
0
  6
Continuous
 62
   179
370
    25
100
AcDbSpline
210
0.0
220
0.0
230
1.0
 70
     8
 71
     3
 72
    11
 73
     7
 74
     0
 42
0.000000001
 43
0.00000001
 40
0.0
 40
0.0
 40
0.0
 40
0.0
 40
0.3257483554028657
 40
0.6127727420808701
 40
0.8122960051790685
 40
1.0
 40
1.0
 40
1.0
 40
1.0
 10
8.711100915285547
 20
0.4889999999243427
 30
0.0
 10
8.711037684556468
 20
0.4897337112589325
 30
0.0
 10
8.710918739774096
 20
0.4911139125675056
 30
0.0
 10
8.71002724631909
 20
0.4927456796368032
 30
0.0
 10
8.708861689122527
 20
0.4937996221675071
 30
0.0
 10
8.707988422272528
 20
0.4939345804959442
 30
0.0
 10
8.7075651161314
 20
0.4940000000057114
 30
0.0
  0
SPLINE
  5
203
330
1C3
100
AcDbEntity
  8
0
  6
Continuous
 62
   179
370
    25
100
AcDbSpline
210
0.0
220
0.0
230
1.0
 70
     8
 71
     3
 72
    11
 73
     7
 74
     0
 42
0.000000001
 43
0.00000001
 40
0.0
 40
0.0
 40
0.0
 40
0.0
 40
0.325750933340563
 40
0.6127725941800221
 40
0.8122959691721046
 40
1.0
 40
1.0
 40
1.0
 40
1.0
 10
8.711100915285547
 20
0.144999982123153
 30
0.0
 10
8.71103768695201
 20
0.1457337021014842
 30
0.0
 10
8.71091874764592
 20
0.1471139084140576
 30
0.0
 10
8.710027239532865
 20
0.1487456728669293
 30
0.0
 10
8.708861689722115
 20
0.1497996166805888
 30
0.0
 10
8.707988422414077
 20
0.1499345861373847
 30
0.0
 10
8.7075651161314
 20
0.1500000110290585
 30
0.0
  0
SPLINE
  5
204
330
1C3
100
AcDbEntity
  8
0
  6
Continuous
 62
   179
370
    25
100
AcDbSpline
210
0.0
220
0.0
230
1.0
 70
     8
 71
     3
 72
    11
 73
     7
 74
     0
 42
0.000000001
 43
0.00000001
 40
0.0
 40
0.0
 40
0.0
 40
0.0
 40
0.239030296913799
 40
0.5039343793634371
 40
0.7402258736646018
 40
0.9999999999999999
 40
0.9999999999999999
 40
0.9999999999999999
 40
0.9999999999999999
 10
8.7075651161314
 20
0.1250000131645017
 30
0.0
 10
8.708103389663513
 20
0.1251098299445308
 30
0.0
 10
8.709238202035985
 20
0.1253413505994569
 30
0.0
 10
8.710328422654815
 20
0.1267220136613466
 30
0.0
 10
8.71098345884821
 20
0.1283008519139154
 30
0.0
 10
8.711060546750398
 20
0.1294160243219213
 30
0.0
 10
8.711100915285547
 20
0.1300000054041641
 30
0.0
  0
SPLINE
  5
205
330
1C3
100
AcDbEntity
  8
0
  6
Continuous
 62
   179
370
    25
100
AcDbSpline
210
0.0
220
0.0
230
1.0
 70
     8
 71
     3
 72
    11
 73
     7
 74
     0
 42
0.000000001
 43
0.00000001
 40
0.0
 40
0.0
 40
0.0
 40
0.0
 40
0.3228934949563748
 40
0.6069423727782313
 40
0.8078804114354132
 40
0.9999999999999999
 40
0.9999999999999999
 40
0.9999999999999999
 40
0.9999999999999999
 10
8.682370420516007
 20
0.3945548875769232
 30
0.0
 10
8.682603184727027
 20
0.3953939348140922
 30
0.0
 10
8.68304071123264
 20
0.3969710905293817
 30
0.0
 10
8.684370008129616
 20
0.3987305732124752
 30
0.0
 10
8.685895942979082
 20
0.39980510796934
 30
0.0
 10
8.686953786477748
 20
0.3999360142001258
 30
0.0
 10
8.687470841595507
 20
0.3999999988411999
 30
0.0
  0
SPLINE
  5
206
330
1C3
100
AcDbEntity
  8
0
  6
Continuous
 62
   179
370
    25
100
AcDbSpline
210
0.0
220
0.0
230
1.0
 70
     8
 71
     3
 72
    11
 73
     7
 74
     0
 42
0.000000001
 43
0.00000001
 40
0.0
 40
0.0
 40
0.0
 40
0.0
 40
0.2446402789721038
 40
0.5092236970416918
 40
0.7424258392768516
 40
1.0
 40
1.0
 40
1.0
 40
1.0
 10
8.687470841595507
 20
0.1500000110290585
 30
0.0
 10
8.686812057834121
 20
0.1501065742040384
 30
0.0
 10
8.685440786087977
 20
0.1503283876117033
 30
0.0
 10
8.683937451939913
 20
0.1517649593852385
 30
0.0
 10
8.682881241108081
 20
0.1534984197967553
 30
0.0
 10
8.68254623945602
 20
0.1547750942953084
 30
0.0
 10
8.682370420516007
 20
0.1554451314598966
 30
0.0
  0
SPLINE
  5
207
330
1C3
100
AcDbEntity
  8
0
  6
Continuous
 62
   179
370
    25
100
AcDbSpline
210
0.0
220
0.0
230
1.0
 70
     8
 71
     3
 72
    11
 73
     7
 74
     0
 42
0.000000001
 43
0.00000001
 40
0.0
 40
0.0
 40
0.0
 40
0.0
 40
0.080031602403412
 40
0.3459533349571373
 40
0.6480777850285382
 40
1.0
 40
1.0
 40
1.0
 40
1.0
 10
8.668693618511591
 20
0.3802605618728602
 30
0.0
 10
8.669266588136644
 20
0.3801640016558601
 30
0.0
 10
8.671743369141444
 20
0.3797465999283893
 30
0.0
 10
8.676095809600193
 20
0.3824579452303443
 30
0.0
 10
8.68037931155131
 20
0.387507092518698
 30
0.0
 10
8.681673862708875
 20
0.3920893285553353
 30
0.0
 10
8.682370420516007
 20
0.3945548875769232
 30
0.0
  0
SPLINE
  5
208
330
1C3
100
AcDbEntity
  8
0
  6
Continuous
 62
   179
370
    25
100
AcDbSpline
210
0.0
220
0.0
230
1.0
 70
     8
 71
     3
 72
    12
 73
     8
 74
     0
 42
0.000000001
 43
0.00000001
 40
0.0
 40
0.0
 40
0.0
 40
0.0
 40
0.2290232830998667
 40
0.4406449811202702
 40
0.6353839804618657
 40
0.8166582762225808
 40
1.0
 40
1.0
 40
1.0
 40
1.0
 10
8.682370420516007
 20
0.1554451314598966
 30
0.0
 10
8.681959967770046
 20
0.157043579833499
 30
0.0
 10
8.681170249187524
 20
0.1601190237092256
 30
0.0
 10
8.678947805083828
 20
0.1641822261355336
 30
0.0
 10
8.676112625331925
 20
0.1673127663088321
 30
0.0
 10
8.672664097945784
 20
0.169685469101416
 30
0.0
 10
8.669987362334892
 20
0.1697213749461319
 30
0.0
 10
8.668641405781424
 20
0.1697394296642773
 30
0.0
  0
SPLINE
  5
209
330
1C3
100
AcDbEntity
  8
0
  6
Continuous
 62
   179
370
    25
100
AcDbSpline
210
0.0
220
0.0
230
1.0
 70
     8
 71
     3
 72
    10
 73
     6
 74
     0
 42
0.000000001
 43
0.00000001
 40
0.0
 40
0.0
 40
0.0
 40
0.0
 40
0.3018163544227625
 40
0.588487411588803
 40
1.0
 40
1.0
 40
1.0
 40
1.0
 10
8.339869577114976
 20
0.7300166922935291
 30
0.0
 10
8.339842473028714
 20
0.7304734951494966
 30
0.0
 10
8.33978962495294
 20
0.7313641782631686
 30
0.0
 10
8.339357214380573
 20
0.7328450706886073
 30
0.0
 10
8.338691108021793
 20
0.7336812362072613
 30
0.0
 10
8.338298501930838
 20
0.7341740759337446
 30
0.0
  0
SPLINE
  5
20A
330
1C3
100
AcDbEntity
  8
0
  6
Continuous
 62
   179
370
    25
100
AcDbSpline
210
0.0
220
0.0
230
1.0
 70
     8
 71
     3
 72
    10
 73
     6
 74
     0
 42
0.000000001
 43
0.00000001
 40
0.0
 40
0.0
 40
0.0
 40
0.0
 40
0.2573593627378929
 40
0.533641683022478
 40
0.9999999999999999
 40
0.9999999999999999
 40
0.9999999999999999
 40
0.9999999999999999
 10
8.338298501930838
 20
0.7408259190910849
 30
0.0
 10
8.33855721250744
 20
0.7411201515141209
 30
0.0
 10
8.339093655969398
 20
0.7417302504969508
 30
0.0
 10
8.339711474045082
 20
0.7431457995935961
 30
0.0
 10
8.339808590559672
 20
0.7442745169603835
 30
0.0
 10
8.339869577114976
 20
0.7449833210644236
 30
0.0
  0
SPLINE
  5
20B
330
1C3
100
AcDbEntity
  8
0
  6
Continuous
 62
   179
370
    25
100
AcDbSpline
210
0.0
220
0.0
230
1.0
 70
     8
 71
     3
 72
    11
 73
     7
 74
     0
 42
0.000000001
 43
0.00000001
 40
0.0
 40
0.0
 40
0.0
 40
0.0
 40
0.3257144339725105
 40
0.6127161144753458
 40
0.8122256001178059
 40
1.0
 40
1.0
 40
1.0
 40
1.0
 10
8.339869577114976
 20
0.8574999945955423
 30
0.0
 10
8.339806595851057
 20
0.8582337234727159
 30
0.0
 10
8.339688118954463
 20
0.8596139739615153
 30
0.0
 10
8.33879646471909
 20
0.8612456729190755
 30
0.0
 10
8.337630798767323
 20
0.8622997814939662
 30
0.0
 10
8.336757295558533
 20
0.8624346135699932
 30
0.0
 10
8.33633377796083
 20
0.8624999868352052
 30
0.0
  0
SPLINE
  5
20C
330
1C3
100
AcDbEntity
  8
0
  6
Continuous
 62
   179
370
    25
100
AcDbSpline
210
0.0
220
0.0
230
1.0
 70
     8
 71
     3
 72
    11
 73
     7
 74
     0
 42
0.000000001
 43
0.00000001
 40
0.0
 40
0.0
 40
0.0
 40
0.0
 40
0.2750986068560997
 40
0.5611271051909617
 40
0.7846121852824748
 40
1.0
 40
1.0
 40
1.0
 40
1.0
 10
8.338298501930838
 20
0.7341740759337446
 30
0.0
 10
8.337992611017707
 20
0.7347474508442159
 30
0.0
 10
8.33736867589659
 20
0.7359169813168636
 30
0.0
 10
8.337264942334496
 20
0.7377917412634866
 30
0.0
 10
8.337536887834261
 20
0.7394862562358605
 30
0.0
 10
8.33804777252965
 20
0.7403848914538705
 30
0.0
 10
8.338298501930838
 20
0.7408259190910849
 30
0.0
  0
SPLINE
  5
20D
330
1C3
100
AcDbEntity
  8
0
  6
Continuous
 62
   179
370
    25
100
AcDbSpline
210
0.0
220
0.0
230
1.0
 70
     8
 71
     3
 72
    11
 73
     7
 74
     0
 42
0.000000001
 43
0.00000001
 40
0.0
 40
0.0
 40
0.0
 40
0.0
 40
0.3257278600104492
 40
0.6127835895951623
 40
0.8123012990731174
 40
1.0
 40
1.0
 40
1.0
 40
1.0
 10
0.3889091606215229
 20
0.144999982123153
 30
0.0
 10
0.3888462393929696
 20
0.145733743959223
 30
0.0
 10
0.3887278672761574
 20
0.1471141515540807
 30
0.0
 10
0.3878354208209522
 20
0.1487455399906182
 30
0.0
 10
0.3866699620029218
 20
0.1497996298314433
 30
0.0
 10
0.3857966765470229
 20
0.1499345904308848
 30
0.0
 10
0.3853733614673765
 20
0.1500000110290585
 30
0.0
  0
SPLINE
  5
20E
330
1C3
100
AcDbEntity
  8
0
  6
Continuous
 62
   179
370
    25
100
AcDbSpline
210
0.0
220
0.0
230
1.0
 70
     8
 71
     3
 72
    11
 73
     7
 74
     0
 42
0.000000001
 43
0.00000001
 40
0.0
 40
0.0
 40
0.0
 40
0.0
 40
0.239030296913799
 40
0.5039343793634371
 40
0.7402258736646018
 40
0.9999999999999999
 40
0.9999999999999999
 40
0.9999999999999999
 40
0.9999999999999999
 10
0.3853733614673765
 20
0.1250000131645017
 30
0.0
 10
0.3859116349994882
 20
0.1251098299445308
 30
0.0
 10
0.3870464473719569
 20
0.1253413505994569
 30
0.0
 10
0.3881366679907961
 20
0.1267220136613466
 30
0.0
 10
0.3887917041841852
 20
0.1283008519139154
 30
0.0
 10
0.3888687920863755
 20
0.1294160243219213
 30
0.0
 10
0.3889091606215229
 20
0.1300000054041641
 30
0.0
  0
SPLINE
  5
20F
330
1C3
100
AcDbEntity
  8
0
  6
Continuous
 62
   179
370
    25
100
AcDbSpline
210
0.0
220
0.0
230
1.0
 70
     8
 71
     3
 72
    11
 73
     7
 74
     0
 42
0.000000001
 43
0.00000001
 40
0.0
 40
0.0
 40
0.0
 40
0.0
 40
0.3257336084983773
 40
0.6127512949637489
 40
0.8122707552909505
 40
1.0
 40
1.0
 40
1.0
 40
1.0
 10
0.0
 20
0.1324999831908735
 30
0.0
 10
0.0000945978143959
 20
0.131399408184878
 30
0.0
 10
0.0002725497719421
 20
0.129329069900665
 30
0.0
 10
0.0016099431088465
 20
0.1268814890354127
 30
0.0
 10
0.0033583254603958
 20
0.1253005119934435
 30
0.0
 10
0.0046683403725006
 20
0.1250981254803182
 30
0.0
 10
0.0053034054012749
 20
0.1250000131645017
 30
0.0
  0
SPLINE
  5
210
330
1C3
100
AcDbEntity
  8
0
  6
Continuous
 62
   179
370
    25
100
AcDbSpline
210
0.0
220
0.0
230
1.0
 70
     8
 71
     3
 72
    11
 73
     7
 74
     0
 42
0.000000001
 43
0.00000001
 40
0.0
 40
0.0
 40
0.0
 40
0.0
 40
0.239030296913799
 40
0.5039343793634371
 40
0.7402258736646018
 40
0.9999999999999999
 40
0.9999999999999999
 40
0.9999999999999999
 40
0.9999999999999999
 10
0.0035357991541465
 20
0.8624999868352052
 30
0.0
 10
0.0029975256220325
 20
0.8623901700551749
 30
0.0
 10
0.0018627132495617
 20
0.86215864940025
 30
0.0
 10
0.0007724926307312
 20
0.8607779863383598
 30
0.0
 10
0.0001174564373366
 20
0.8591991480857898
 30
0.0
 10
0.0000403685351485
 20
0.858083975677785
 30
0.0
 10
0.0
 20
0.8574999945955423
 30
0.0
  0
SPLINE
  5
211
330
1C3
100
AcDbEntity
  8
0
  6
Continuous
 62
   179
370
    25
100
AcDbSpline
210
0.0
220
0.0
230
1.0
 70
     8
 71
     3
 72
    11
 73
     7
 74
     0
 42
0.000000001
 43
0.00000001
 40
0.0
 40
0.0
 40
0.0
 40
0.0
 40
0.3257420456762922
 40
0.6127680560968726
 40
0.8122944547043247
 40
1.0
 40
1.0
 40
1.0
 40
1.0
 10
0.0176778224509532
 20
0.8574999945955423
 30
0.0
 10
0.0176148413004506
 20
0.8582337229586159
 30
0.0
 10
0.0174963646172074
 20
0.8596139724803203
 30
0.0
 10
0.016604709068566
 20
0.8612456773907479
 30
0.0
 10
0.0154391930561606
 20
0.8622996380330139
 30
0.0
 10
0.0145659183028706
 20
0.8624345769743574
 30
0.0
 10
0.0141426099566963
 20
0.8624999868352052
 30
0.0
  0
SPLINE
  5
212
330
1C3
100
AcDbEntity
  8
0
  6
Continuous
 62
   179
370
    25
100
AcDbSpline
210
0.0
220
0.0
230
1.0
 70
     8
 71
     3
 72
    10
 73
     6
 74
     0
 42
0.000000001
 43
0.00000001
 40
0.0
 40
0.0
 40
0.0
 40
0.0
 40
0.2573593627378929
 40
0.533641683022478
 40
0.9999999999999999
 40
0.9999999999999999
 40
0.9999999999999999
 40
0.9999999999999999
 10
0.0161067472668145
 20
0.7408259190910849
 30
0.0
 10
0.0163654578434178
 20
0.7411201515141209
 30
0.0
 10
0.0169019013053757
 20
0.7417302504969508
 30
0.0
 10
0.0175197193810597
 20
0.7431457995935961
 30
0.0
 10
0.0176168358956504
 20
0.7442745169603835
 30
0.0
 10
0.0176778224509532
 20
0.7449833210644236
 30
0.0
  0
SPLINE
  5
213
330
1C3
100
AcDbEntity
  8
0
  6
Continuous
 62
   179
370
    25
100
AcDbSpline
210
0.0
220
0.0
230
1.0
 70
     8
 71
     3
 72
    11
 73
     7
 74
     0
 42
0.000000001
 43
0.00000001
 40
0.0
 40
0.0
 40
0.0
 40
0.0
 40
0.2750986068560997
 40
0.5611271051909617
 40
0.7846121852824748
 40
1.0
 40
1.0
 40
1.0
 40
1.0
 10
0.0161067472668145
 20
0.7341740759337446
 30
0.0
 10
0.0158008563536859
 20
0.7347474508442159
 30
0.0
 10
0.0151769212325666
 20
0.7359169813168636
 30
0.0
 10
0.0150731876704688
 20
0.7377917412634866
 30
0.0
 10
0.0153451331702372
 20
0.7394862562358605
 30
0.0
 10
0.0158560178656276
 20
0.7403848914538705
 30
0.0
 10
0.0161067472668145
 20
0.7408259190910849
 30
0.0
  0
SPLINE
  5
214
330
1C3
100
AcDbEntity
  8
0
  6
Continuous
 62
   179
370
    25
100
AcDbSpline
210
0.0
220
0.0
230
1.0
 70
     8
 71
     3
 72
    10
 73
     6
 74
     0
 42
0.000000001
 43
0.00000001
 40
0.0
 40
0.0
 40
0.0
 40
0.0
 40
0.3018163544227625
 40
0.588487411588803
 40
1.0
 40
1.0
 40
1.0
 40
1.0
 10
0.0176778224509532
 20
0.7300166922935291
 30
0.0
 10
0.01765071836469
 20
0.7304734951494966
 30
0.0
 10
0.0175978702889155
 20
0.7313641782631686
 30
0.0
 10
0.0171654597165549
 20
0.7328450706886073
 30
0.0
 10
0.0164993533577712
 20
0.7336812362072613
 30
0.0
 10
0.0161067472668145
 20
0.7341740759337446
 30
0.0
  0
SPLINE
  5
215
330
1C3
100
AcDbEntity
  8
0
  6
Continuous
 62
   179
370
    25
100
AcDbSpline
210
0.0
220
0.0
230
1.0
 70
     8
 71
     3
 72
    11
 73
     7
 74
     0
 42
0.000000001
 43
0.00000001
 40
0.0
 40
0.0
 40
0.0
 40
0.0
 40
0.2390312202354139
 40
0.5039371518556983
 40
0.7402289407007044
 40
1.0
 40
1.0
 40
1.0
 40
1.0
 10
0.0212136216050997
 20
0.4250000012890378
 30
0.0
 10
0.0206753477255592
 20
0.4251098230512086
 30
0.0
 10
0.0195405327607765
 20
0.4253413545891619
 30
0.0
 10
0.0184503185101165
 20
0.4267220273602913
 30
0.0
 10
0.017795281315882
 20
0.4283008601193942
 30
0.0
 10
0.0177181916557039
 20
0.4294160247391511
 30
0.0
 10
0.0176778224509532
 20
0.4299999981119816
 30
0.0
  0
SPLINE
  5
216
330
1C3
100
AcDbEntity
  8
0
  6
Continuous
 62
   179
370
    25
100
AcDbSpline
210
0.0
220
0.0
230
1.0
 70
     8
 71
     3
 72
    11
 73
     7
 74
     0
 42
0.000000001
 43
0.00000001
 40
0.0
 40
0.0
 40
0.0
 40
0.0
 40
0.3257115875643641
 40
0.612715523847311
 40
0.8122244669176126
 40
1.0
 40
1.0
 40
1.0
 40
1.0
 10
0.3712313381705697
 20
0.4299999981119816
 30
0.0
 10
0.3711683544242783
 20
0.4292662783106579
 30
0.0
 10
0.371049871936776
 20
0.4278860341634153
 30
0.0
 10
0.370158234186015
 20
0.4262543271708716
 30
0.0
 10
0.3689925533527776
 20
0.4252002358385727
 30
0.0
 10
0.3681190557877405
 20
0.4250653842902491
 30
0.0
 10
0.3676955390164233
 20
0.4250000012890378
 30
0.0
  0
SPLINE
  5
217
330
1C3
100
AcDbEntity
  8
0
  6
Continuous
 62
   179
370
    25
100
AcDbSpline
210
0.0
220
0.0
230
1.0
 70
     8
 71
     3
 72
    11
 73
     7
 74
     0
 42
0.000000001
 43
0.00000001
 40
0.0
 40
0.0
 40
0.0
 40
0.0
 40
0.2391086581138193
 40
0.5039494370808453
 40
0.7402349754158369
 40
1.0
 40
1.0
 40
1.0
 40
1.0
 10
0.3747671373247162
 20
0.4940000000057114
 30
0.0
 10
0.3742286122961605
 20
0.4938902546423371
 30
0.0
 10
0.373093607871245
 20
0.493658953465159
 30
0.0
 10
0.3720038758899931
 20
0.492277760313491
 30
0.0
 10
0.3713487719093507
 20
0.4906991630326895
 30
0.0
 10
0.3712716987804141
 20
0.4895839825173319
 30
0.0
 10
0.3712313381705697
 20
0.4889999999243427
 30
0.0
  0
SPLINE
  5
218
330
1C3
100
AcDbEntity
  8
0
  6
Continuous
 62
   179
370
    25
100
AcDbSpline
210
0.0
220
0.0
230
1.0
 70
     8
 71
     3
 72
    11
 73
     7
 74
     0
 42
0.000000001
 43
0.00000001
 40
0.0
 40
0.0
 40
0.0
 40
0.0
 40
0.3257252820844521
 40
0.6127837373505931
 40
0.8123013350106053
 40
1.0
 40
1.0
 40
1.0
 40
1.0
 10
0.3889091606215229
 20
0.4889999999243427
 30
0.0
 10
0.3888462369960002
 20
0.4897337531157928
 30
0.0
 10
0.3887278594044041
 20
0.4911141557055831
 30
0.0
 10
0.3878354276070844
 20
0.4927455467617809
 30
0.0
 10
0.3866699614032036
 20
0.4937996353181677
 30
0.0
 10
0.3857966764054312
 20
0.4939345847893815
 30
0.0
 10
0.3853733614673765
 20
0.4940000000057114
 30
0.0
  0
SPLINE
  5
219
330
1C3
100
AcDbEntity
  8
0
  6
Continuous
 62
   179
370
    25
100
AcDbSpline
210
0.0
220
0.0
230
1.0
 70
     8
 71
     3
 72
    11
 73
     7
 74
     0
 42
0.000000001
 43
0.00000001
 40
0.0
 40
0.0
 40
0.0
 40
0.0
 40
0.2390313377881464
 40
0.5039366623420154
 40
0.7402283613235203
 40
0.9999999999999999
 40
0.9999999999999999
 40
0.9999999999999999
 40
0.9999999999999999
 10
0.3853733614673765
 20
0.3999999988411999
 30
0.0
 10
0.3859116350800952
 20
0.4001098225695779
 30
0.0
 10
0.3870464478219294
 20
0.4003413579140096
 30
0.0
 10
0.3881366659267123
 20
0.4017220249042913
 30
0.0
 10
0.3887917021080191
 20
0.4033008593715815
 30
0.0
 10
0.3888687915046066
 20
0.4044160254070421
 30
0.0
 10
0.3889091606215229
 20
0.4050000002474237
 30
0.0
  0
SPLINE
  5
21A
330
1C3
100
AcDbEntity
  8
0
  6
Continuous
 62
   179
370
    25
100
AcDbSpline
210
0.0
220
0.0
230
1.0
 70
     8
 71
     3
 72
    11
 73
     7
 74
     0
 42
0.000000001
 43
0.00000001
 40
0.0
 40
0.0
 40
0.0
 40
0.0
 40
0.3228934949563748
 40
0.6069423727782313
 40
0.8078804114354132
 40
0.9999999999999999
 40
0.9999999999999999
 40
0.9999999999999999
 40
0.9999999999999999
 10
0.3601786658519835
 20
0.3945548875769232
 30
0.0
 10
0.3604114300630026
 20
0.3953939348140922
 30
0.0
 10
0.3608489565686165
 20
0.3969710905293817
 30
0.0
 10
0.3621782534655938
 20
0.3987305732124752
 30
0.0
 10
0.3637041883150614
 20
0.39980510796934
 30
0.0
 10
0.364762031813725
 20
0.3999360142001258
 30
0.0
 10
0.365279086931484
 20
0.3999999988411999
 30
0.0
  0
SPLINE
  5
21B
330
1C3
100
AcDbEntity
  8
0
  6
Continuous
 62
   179
370
    25
100
AcDbSpline
210
0.0
220
0.0
230
1.0
 70
     8
 71
     3
 72
    15
 73
    11
 74
     0
 42
0.000000001
 43
0.00000001
 40
0.0
 40
0.0
 40
0.0
 40
0.0
 40
0.1146598855963047
 40
0.2206173544564163
 40
0.3181065870800885
 40
0.4088639903393599
 40
0.5406321359181134
 40
0.6734148473843888
 40
0.824274663524587
 40
1.0
 40
1.0
 40
1.0
 40
1.0
 10
0.3327728491129838
 20
0.3945548875769232
 30
0.0
 10
0.3331829641057154
 20
0.3929550801660718
 30
0.0
 10
0.3339720673238916
 20
0.3898768869794448
 30
0.0
 10
0.336195922180475
 20
0.3858315542232703
 30
0.0
 10
0.3390290850326969
 20
0.3826425394162338
 30
0.0
 10
0.3429747509772828
 20
0.3801589437740913
 30
0.0
 10
0.3483416266197225
 20
0.3795084158245979
 30
0.0
 10
0.3538964428986868
 20
0.3822948911981658
 30
0.0
 10
0.3581899473521417
 20
0.3875582975915012
 30
0.0
 10
0.3594829443109652
 20
0.3921072418357536
 30
0.0
 10
0.3601786658519835
 20
0.3945548875769232
 30
0.0
  0
SPLINE
  5
21C
330
1C3
100
AcDbEntity
  8
0
  6
Continuous
 62
   179
370
    25
100
AcDbSpline
210
0.0
220
0.0
230
1.0
 70
     8
 71
     3
 72
    11
 73
     7
 74
     0
 42
0.000000001
 43
0.00000001
 40
0.0
 40
0.0
 40
0.0
 40
0.0
 40
0.244573676759559
 40
0.5092186765238536
 40
0.7424257891384541
 40
1.0
 40
1.0
 40
1.0
 40
1.0
 10
0.3276724280334833
 20
0.3999999988411999
 30
0.0
 10
0.3283309737786599
 20
0.39989336296388
 30
0.0
 10
0.3297021098601568
 20
0.399671339968443
 30
0.0
 10
0.3312058057160763
 20
0.3982352426516335
 30
0.0
 10
0.3322620012974954
 20
0.3965015522484555
 30
0.0
 10
0.3325970219601027
 20
0.395224904158047
 30
0.0
 10
0.3327728491129838
 20
0.3945548875769232
 30
0.0
  0
SPLINE
  5
21D
330
1C3
100
AcDbEntity
  8
0
  6
Continuous
 62
   179
370
    25
100
AcDbSpline
210
0.0
220
0.0
230
1.0
 70
     8
 71
     3
 72
    11
 73
     7
 74
     0
 42
0.000000001
 43
0.00000001
 40
0.0
 40
0.0
 40
0.0
 40
0.0
 40
0.3257175709752148
 40
0.6127255876475033
 40
0.8123063390485483
 40
1.0
 40
1.0
 40
1.0
 40
1.0
 10
0.0176778224509532
 20
0.3949999974349756
 30
0.0
 10
0.0177408176385639
 20
0.3957337033825917
 30
0.0
 10
0.0178593214184872
 20
0.3971139187838283
 30
0.0
 10
0.0187508987418316
 20
0.3987459425926373
 30
0.0
 10
0.0199169696108341
 20
0.3997994971107769
 30
0.0
 10
0.0207903400855109
 20
0.3999345466786234
 30
0.0
 10
0.0212136216050997
 20
0.3999999988411999
 30
0.0
  0
SPLINE
  5
21E
330
1C3
100
AcDbEntity
  8
0
  6
Continuous
 62
   179
370
    25
100
AcDbSpline
210
0.0
220
0.0
230
1.0
 70
     8
 71
     3
 72
    11
 73
     7
 74
     0
 42
0.000000001
 43
0.00000001
 40
0.0
 40
0.0
 40
0.0
 40
0.0
 40
0.2390305387261348
 40
0.5039389397391401
 40
0.7402256108670022
 40
1.0
 40
1.0
 40
1.0
 40
1.0
 10
0.0212136216050997
 20
0.1500000110290585
 30
0.0
 10
0.0206753462385105
 20
0.1501098264598056
 30
0.0
 10
0.019540520876981
 20
0.1503413461310276
 30
0.0
 10
0.0184503366335075
 20
0.1517220379193912
 30
0.0
 10
0.0177952704738767
 20
0.1533008573668161
 30
0.0
 10
0.0177181883645057
 20
0.1544160208833102
 30
0.0
 10
0.0176778224509532
 20
0.1550000032687221
 30
0.0
  0
SPLINE
  5
21F
330
1C3
100
AcDbEntity
  8
0
  6
Continuous
 62
   179
370
    25
100
AcDbSpline
210
0.0
220
0.0
230
1.0
 70
     8
 71
     3
 72
    11
 73
     7
 74
     0
 42
0.000000001
 43
0.00000001
 40
0.0
 40
0.0
 40
0.0
 40
0.0
 40
0.3228984043466715
 40
0.606947885982942
 40
0.8079508583700152
 40
1.0
 40
1.0
 40
1.0
 40
1.0
 10
0.3327728491129838
 20
0.1554451314598966
 30
0.0
 10
0.3325400795669092
 20
0.1546060893505855
 30
0.0
 10
0.332102545711032
 20
0.1530289529273601
 30
0.0
 10
0.3307732196124551
 20
0.1512691957419909
 30
0.0
 10
0.3292470179546788
 20
0.1501951180097182
 30
0.0
 10
0.328189259333821
 20
0.1500640514456536
 30
0.0
 10
0.3276724280334833
 20
0.1500000110290585
 30
0.0
  0
SPLINE
  5
220
330
1C3
100
AcDbEntity
  8
0
  6
Continuous
 62
   179
370
    25
100
AcDbSpline
210
0.0
220
0.0
230
1.0
 70
     8
 71
     3
 72
    15
 73
    11
 74
     0
 42
0.000000001
 43
0.00000001
 40
0.0
 40
0.0
 40
0.0
 40
0.0
 40
0.1146629172010019
 40
0.2206135476767164
 40
0.3181024985248647
 40
0.4088593826466296
 40
0.540626911355764
 40
0.6734213902941687
 40
0.8242805270653724
 40
1.0
 40
1.0
 40
1.0
 40
1.0
 10
0.3601786658519835
 20
0.1554451314598966
 30
0.0
 10
0.3597682520225376
 20
0.1570448875647353
 30
0.0
 10
0.358978608316098
 20
0.1601228475392523
 30
0.0
 10
0.3567557131301166
 20
0.1641686198973425
 30
0.0
 10
0.3539223938228894
 20
0.1673574536827225
 30
0.0
 10
0.3499767705627979
 20
0.1698410923266678
 30
0.0
 10
0.3446097355270908
 20
0.1704914937176688
 30
0.0
 10
0.3390546009588296
 20
0.167705312561398
 30
0.0
 10
0.3347609138293733
 20
0.1624417843674308
 30
0.0
 10
0.3334683359089681
 20
0.1578927779943118
 30
0.0
 10
0.3327728491129838
 20
0.1554451314598966
 30
0.0
  0
SPLINE
  5
221
330
1C3
100
AcDbEntity
  8
0
  6
Continuous
 62
   179
370
    25
100
AcDbSpline
210
0.0
220
0.0
230
1.0
 70
     8
 71
     3
 72
    11
 73
     7
 74
     0
 42
0.000000001
 43
0.00000001
 40
0.0
 40
0.0
 40
0.0
 40
0.0
 40
0.2445732137042183
 40
0.5092162249781337
 40
0.7424219177132222
 40
0.9999999999999999
 40
0.9999999999999999
 40
0.9999999999999999
 40
0.9999999999999999
 10
0.365279086931484
 20
0.1500000110290585
 30
0.0
 10
0.3646205418740261
 20
0.1501066477403652
 30
0.0
 10
0.3632494112295175
 20
0.1503286718236776
 30
0.0
 10
0.3617457079686541
 20
0.1517647478401318
 30
0.0
 10
0.3606895042605773
 20
0.1534984421418245
 30
0.0
 10
0.360354490924252
 20
0.1547751019862396
 30
0.0
 10
0.3601786658519835
 20
0.1554451314598966
 30
0.0
  0
ENDBLK
  5
1C5
330
1C3
100
AcDbEntity
  8
0
100
AcDbBlockEnd
  0
BLOCK
  5
228
330
227
100
AcDbEntity
  8
0
100
AcDbBlockBegin
  2
SW_TABLEANNOTATION_0
 70
     0
 10
0.0
 20
0.0
 30
0.0
  3
SW_TABLEANNOTATION_0
  1

  0
LINE
  5
22A
330
227
100
AcDbEntity
  8
FORMAT
 62
     0
100
AcDbLine
 10
0.0
 20
0.0
 30
0.0
 11
0.0
 21
-1.0877351438
 31
0.0
  0
LINE
  5
22B
330
227
100
AcDbEntity
  8
FORMAT
 62
     0
100
AcDbLine
 10
0.0
 20
-1.0877351438
 30
0.0
 11
3.5338148144
 21
-1.0877351438
 31
0.0
  0
LINE
  5
22C
330
227
100
AcDbEntity
  8
FORMAT
 62
     0
100
AcDbLine
 10
3.5338148144
 20
-1.0877351438
 30
0.0
 11
3.5338148144
 21
0.0
 31
0.0
  0
LINE
  5
22D
330
227
100
AcDbEntity
  8
FORMAT
 62
     0
100
AcDbLine
 10
3.5338148144
 20
0.0
 30
0.0
 11
0.0
 21
0.0
 31
0.0
  0
LINE
  5
22E
330
227
100
AcDbEntity
  8
FORMAT
 62
     0
100
AcDbLine
 10
1.7669074072
 20
-0.2175470288
 30
0.0
 11
1.7669074072
 21
-1.0877351438
 31
0.0
  0
LINE
  5
22F
330
227
100
AcDbEntity
  8
FORMAT
 62
     0
100
AcDbLine
 10
0.0
 20
-0.2175470288
 30
0.0
 11
3.5338148144
 21
-0.2175470288
 31
0.0
  0
LINE
  5
230
330
227
100
AcDbEntity
  8
FORMAT
 62
     0
100
AcDbLine
 10
0.0
 20
-0.4350940575
 30
0.0
 11
3.5338148144
 21
-0.4350940575
 31
0.0
  0
LINE
  5
231
330
227
100
AcDbEntity
  8
FORMAT
 62
     0
100
AcDbLine
 10
0.0
 20
-0.6526410863
 30
0.0
 11
3.5338148144
 21
-0.6526410863
 31
0.0
  0
LINE
  5
232
330
227
100
AcDbEntity
  8
FORMAT
 62
     0
100
AcDbLine
 10
0.0
 20
-0.870188115
 30
0.0
 11
3.5338148144
 21
-0.870188115
 31
0.0
  0
MTEXT
  5
233
330
227
100
AcDbEntity
  8
FORMAT
 62
     0
100
AcDbMText
 10
0.6720090956
 20
-0.0372487842
 30
0.0
 40
0.1377952756
 41
0.0
 71
     1
 72
     1
  1
PANEL EDGE LED WITH LIP
  7
SLDTEXTSTYLE1
 73
     1
 44
1.0
  0
MTEXT
  5
234
330
227
100
AcDbEntity
  8
FORMAT
 62
     0
100
AcDbMText
 10
0.4847268631
 20
-0.2642743332
 30
0.0
 40
0.125
 41
0.0
 71
     1
 72
     1
  1
Panel Size
  7
SLDTEXTSTYLE1
 73
     1
 44
1.0
  0
MTEXT
  5
235
330
227
100
AcDbEntity
  8
FORMAT
 62
     0
100
AcDbMText
 10
1.9818425869
 20
-0.2642743332
 30
0.0
 40
0.125
 41
0.0
 71
     1
 72
     1
  1
Product Number
  7
SLDTEXTSTYLE1
 73
     1
 44
1.0
  0
MTEXT
  5
236
330
227
100
AcDbEntity
  8
FORMAT
 62
     0
100
AcDbMText
 10
0.7417098727
 20
-0.4870443925
 30
0.0
 40
0.1145833333
 41
0.0
 71
     1
 72
     1
  1
1/2"
  7
SLDTEXTSTYLE1
 73
     1
 44
1.0
  0
MTEXT
  5
237
330
227
100
AcDbEntity
  8
FORMAT
 62
     0
100
AcDbMText
 10
2.1616843861
 20
-0.4870443925
 30
0.0
 40
0.1145833333
 41
0.0
 71
     1
 72
     1
  1
PE-WL-LED-50
  7
SLDTEXTSTYLE1
 73
     1
 44
1.0
  0
MTEXT
  5
238
330
227
100
AcDbEntity
  8
FORMAT
 62
     0
100
AcDbMText
 10
0.7417098727
 20
-0.7045914213
 30
0.0
 40
0.1145833333
 41
0.0
 71
     1
 72
     1
  1
3/4"
  7
SLDTEXTSTYLE1
 73
     1
 44
1.0
  0
MTEXT
  5
239
330
227
100
AcDbEntity
  8
FORMAT
 62
     0
100
AcDbMText
 10
2.1616843861
 20
-0.7045914213
 30
0.0
 40
0.1145833333
 41
0.0
 71
     1
 72
     1
  1
PE-WL-LED-75
  7
SLDTEXTSTYLE1
 73
     1
 44
1.0
  0
MTEXT
  5
23A
330
227
100
AcDbEntity
  8
FORMAT
 62
     0
100
AcDbMText
 10
0.8174621934
 20
-0.9221384501
 30
0.0
 40
0.1145833333
 41
0.0
 71
     1
 72
     1
  1
1"
  7
SLDTEXTSTYLE1
 73
     1
 44
1.0
  0
MTEXT
  5
23B
330
227
100
AcDbEntity
  8
FORMAT
 62
     0
100
AcDbMText
 10
2.1193522184
 20
-0.9221384501
 30
0.0
 40
0.1145833333
 41
0.0
 71
     1
 72
     1
  1
PE-WL-LED-100
  7
SLDTEXTSTYLE1
 73
     1
 44
1.0
  0
ENDBLK
  5
229
330
227
100
AcDbEntity
  8
0
100
AcDbBlockEnd
  0
ENDSEC
  0
SECTION
  2
ENTITIES
  0
INSERT
  5
223
330
1F
100
AcDbEntity
  8
FORMAT
100
AcDbBlockReference
  2
Block14_
 10
5.9490476364
 20
4.0022606433
 30
0.0
  0
INSERT
  5
224
330
1F
100
AcDbEntity
  8
FORMAT
100
AcDbBlockReference
  2
Block1
 10
1.4037614072
 20
6.6819306141
 30
0.0
  0
INSERT
  5
225
330
1F
100
AcDbEntity
  8
FORMAT
100
AcDbBlockReference
  2
Block13_
 10
5.9621297399
 20
7.6133212009
 30
0.0
  0
INSERT
  5
226
330
1F
100
AcDbEntity
  8
0
  6
Continuous
 62
     7
100
AcDbBlockReference
  2
Block3
 10
0.4370336966
 20
0.1602847181
 30
0.0
  0
INSERT
  5
23C
330
1F
100
AcDbEntity
  8
FORMAT
100
AcDbBlockReference
  2
SW_TABLEANNOTATION_0
 10
0.4022611988
 20
4.9732050099
 30
0.0
  0
ENDSEC
  0
SECTION
  2
OBJECTS
  0
DICTIONARY
  5
C
330
0
100
AcDbDictionary
281
     1
  3
ACAD_GROUP
350
D
  3
ACAD_LAYOUT
350
1A
  3
ACAD_MLINESTYLE
350
17
  3
ACAD_PLOTSETTINGS
350
19
  3
ACAD_PLOTSTYLENAME
350
E
  3
ACAD_SCALELIST
350
47
  0
DICTIONARY
  5
D
102
{ACAD_REACTORS
330
C
102
}
330
C
100
AcDbDictionary
281
     1
  0
DICTIONARY
  5
1A
102
{ACAD_REACTORS
330
C
102
}
330
C
100
AcDbDictionary
281
     1
  3
Layout1
350
1E
  3
Layout2
350
26
  3
Model
350
22
  0
DICTIONARY
  5
17
102
{ACAD_REACTORS
330
C
102
}
330
C
100
AcDbDictionary
281
     1
  3
Standard
350
18
  0
DICTIONARY
  5
19
102
{ACAD_REACTORS
330
C
102
}
330
C
100
AcDbDictionary
281
     1
  0
ACDBDICTIONARYWDFLT
  5
E
102
{ACAD_REACTORS
330
C
102
}
330
C
100
AcDbDictionary
281
     1
  3
Normal
350
F
100
AcDbDictionaryWithDefault
340
F
  0
DICTIONARY
  5
47
102
{ACAD_REACTORS
330
C
102
}
330
C
100
AcDbDictionary
281
     1
  3
A0
350
48
  3
A1
350
49
  3
A2
350
4A
  3
A3
350
4B
  3
A4
350
4C
  3
A5
350
4D
  3
A6
350
4E
  3
A7
350
4F
  3
A8
350
50
  3
A9
350
51
  3
B0
350
52
  3
B1
350
53
  3
B2
350
54
  3
B3
350
55
  3
B4
350
56
  3
B5
350
57
  3
B6
350
58
  3
B7
350
59
  3
B8
350
5A
  3
B9
350
5B
  3
C0
350
5C
  3
C1
350
5D
  3
C2
350
5E
  3
C3
350
5F
  3
C4
350
60
  3
C5
350
61
  3
C6
350
62
  3
C7
350
63
  3
C8
350
64
  3
C9
350
65
  3
D0
350
66
  3
D1
350
67
  3
D2
350
68
  0
LAYOUT
  5
1E
102
{ACAD_REACTORS
330
1A
102
}
330
1A
100
AcDbPlotSettings
  1

  2
none_device
  4

  6

 40
0.0
 41
0.0
 42
0.0
 43
0.0
 44
0.0
 45
0.0
 46
0.0
 47
0.0
 48
0.0
 49
0.0
140
0.0
141
0.0
142
1.0
143
1.0
 70
   688
 72
     0
 73
     0
 74
     5
  7

 75
    16
147
1.0
148
0.0
149
0.0
100
AcDbLayout
  1
Layout1
 70
     1
 71
     1
 10
0.0
 20
0.0
 11
12.0
 21
9.0
 12
0.0
 22
0.0
 32
0.0
 14
1.0000000000E+20
 24
1.0000000000E+20
 34
1.0000000000E+20
 15
-1.0000000000E+20
 25
-1.0000000000E+20
 35
-1.0000000000E+20
146
0.0
 13
0.0
 23
0.0
 33
0.0
 16
1.0
 26
0.0
 36
0.0
 17
0.0
 27
1.0
 37
0.0
 76
     0
330
1B
  0
LAYOUT
  5
26
102
{ACAD_REACTORS
330
1A
102
}
330
1A
100
AcDbPlotSettings
  1

  2
none_device
  4

  6

 40
0.0
 41
0.0
 42
0.0
 43
0.0
 44
0.0
 45
0.0
 46
0.0
 47
0.0
 48
0.0
 49
0.0
140
0.0
141
0.0
142
1.0
143
1.0
 70
   688
 72
     0
 73
     0
 74
     5
  7

 75
    16
147
1.0
148
0.0
149
0.0
100
AcDbLayout
  1
Layout2
 70
     1
 71
     2
 10
0.0
 20
0.0
 11
0.0
 21
0.0
 12
0.0
 22
0.0
 32
0.0
 14
0.0
 24
0.0
 34
0.0
 15
0.0
 25
0.0
 35
0.0
146
0.0
 13
0.0
 23
0.0
 33
0.0
 16
1.0
 26
0.0
 36
0.0
 17
0.0
 27
1.0
 37
0.0
 76
     0
330
23
  0
LAYOUT
  5
22
102
{ACAD_REACTORS
330
1A
102
}
330
1A
100
AcDbPlotSettings
  1

  2
none_device
  4
Letter_(8.50_x_11.00_Inches)
  6

 40
6.35
 41
6.35
 42
6.35000508
 43
6.35000508
 44
215.9
 45
279.4
 46
0.0
 47
0.0
 48
0.0
 49
0.0
140
0.0
141
0.0
142
1.0
143
1.0
 70
  1712
 72
     0
 73
     0
 74
     0
  7

 75
     0
147
1.0
148
0.0
149
0.0
100
AcDbLayout
  1
Model
 70
     1
 71
     0
 10
0.0
 20
0.0
 11
16.5354330709
 21
11.6929133858
 12
0.0
 22
0.0
 32
0.0
 14
0.0
 24
0.0
 34
0.0
 15
16.5354330709
 25
11.6929133858
 35
0.0
146
0.0
 13
0.0
 23
0.0
 33
0.0
 16
1.0
 26
0.0
 36
0.0
 17
0.0
 27
1.0
 37
0.0
 76
     0
330
1F
331
29
  0
MLINESTYLE
  5
18
102
{ACAD_REACTORS
330
17
102
}
330
17
100
AcDbMlineStyle
  2
Standard
 70
     0
  3

 62
   256
 51
90.0
 52
90.0
 71
     2
 49
0.5
 62
   256
  6
BYLAYER
 49
-0.5
 62
   256
  6
BYLAYER
  0
ACDBPLACEHOLDER
  5
F
102
{ACAD_REACTORS
330
E
102
}
330
E
  0
SCALE
  5
48
102
{ACAD_REACTORS
330
47
102
}
330
47
100
AcDbScale
 70
     0
300
1:1
140
1.0
141
1.0
290
     1
  0
SCALE
  5
49
102
{ACAD_REACTORS
330
47
102
}
330
47
100
AcDbScale
 70
     0
300
1:2
140
1.0
141
2.0
290
     0
  0
SCALE
  5
4A
102
{ACAD_REACTORS
330
47
102
}
330
47
100
AcDbScale
 70
     0
300
1:4
140
1.0
141
4.0
290
     0
  0
SCALE
  5
4B
102
{ACAD_REACTORS
330
47
102
}
330
47
100
AcDbScale
 70
     0
300
1:5
140
1.0
141
5.0
290
     0
  0
SCALE
  5
4C
102
{ACAD_REACTORS
330
47
102
}
330
47
100
AcDbScale
 70
     0
300
1:8
140
1.0
141
8.0
290
     0
  0
SCALE
  5
4D
102
{ACAD_REACTORS
330
47
102
}
330
47
100
AcDbScale
 70
     0
300
1:10
140
1.0
141
10.0
290
     0
  0
SCALE
  5
4E
102
{ACAD_REACTORS
330
47
102
}
330
47
100
AcDbScale
 70
     0
300
1:16
140
1.0
141
16.0
290
     0
  0
SCALE
  5
4F
102
{ACAD_REACTORS
330
47
102
}
330
47
100
AcDbScale
 70
     0
300
1:20
140
1.0
141
20.0
290
     0
  0
SCALE
  5
50
102
{ACAD_REACTORS
330
47
102
}
330
47
100
AcDbScale
 70
     0
300
1:30
140
1.0
141
30.0
290
     0
  0
SCALE
  5
51
102
{ACAD_REACTORS
330
47
102
}
330
47
100
AcDbScale
 70
     0
300
1:40
140
1.0
141
40.0
290
     0
  0
SCALE
  5
52
102
{ACAD_REACTORS
330
47
102
}
330
47
100
AcDbScale
 70
     0
300
1:50
140
1.0
141
50.0
290
     0
  0
SCALE
  5
53
102
{ACAD_REACTORS
330
47
102
}
330
47
100
AcDbScale
 70
     0
300
1:100
140
1.0
141
100.0
290
     0
  0
SCALE
  5
54
102
{ACAD_REACTORS
330
47
102
}
330
47
100
AcDbScale
 70
     0
300
2:1
140
2.0
141
1.0
290
     0
  0
SCALE
  5
55
102
{ACAD_REACTORS
330
47
102
}
330
47
100
AcDbScale
 70
     0
300
4:1
140
4.0
141
1.0
290
     0
  0
SCALE
  5
56
102
{ACAD_REACTORS
330
47
102
}
330
47
100
AcDbScale
 70
     0
300
8:1
140
8.0
141
1.0
290
     0
  0
SCALE
  5
57
102
{ACAD_REACTORS
330
47
102
}
330
47
100
AcDbScale
 70
     0
300
10:1
140
10.0
141
1.0
290
     0
  0
SCALE
  5
58
102
{ACAD_REACTORS
330
47
102
}
330
47
100
AcDbScale
 70
     0
300
100:1
140
100.0
141
1.0
290
     0
  0
SCALE
  5
59
102
{ACAD_REACTORS
330
47
102
}
330
47
100
AcDbScale
 70
     0
300
1/128" = 1'-0"
140
0.0078125
141
12.0
290
     0
  0
SCALE
  5
5A
102
{ACAD_REACTORS
330
47
102
}
330
47
100
AcDbScale
 70
     0
300
1/64" = 1'-0"
140
0.015625
141
12.0
290
     0
  0
SCALE
  5
5B
102
{ACAD_REACTORS
330
47
102
}
330
47
100
AcDbScale
 70
     0
300
1/32" = 1'-0"
140
0.03125
141
12.0
290
     0
  0
SCALE
  5
5C
102
{ACAD_REACTORS
330
47
102
}
330
47
100
AcDbScale
 70
     0
300
1/16" = 1'-0"
140
0.0625
141
12.0
290
     0
  0
SCALE
  5
5D
102
{ACAD_REACTORS
330
47
102
}
330
47
100
AcDbScale
 70
     0
300
3/32" = 1'-0"
140
0.09375
141
12.0
290
     0
  0
SCALE
  5
5E
102
{ACAD_REACTORS
330
47
102
}
330
47
100
AcDbScale
 70
     0
300
1/8" = 1'-0"
140
0.125
141
12.0
290
     0
  0
SCALE
  5
5F
102
{ACAD_REACTORS
330
47
102
}
330
47
100
AcDbScale
 70
     0
300
3/16" = 1'-0"
140
0.1875
141
12.0
290
     0
  0
SCALE
  5
60
102
{ACAD_REACTORS
330
47
102
}
330
47
100
AcDbScale
 70
     0
300
1/4" = 1'-0"
140
0.25
141
12.0
290
     0
  0
SCALE
  5
61
102
{ACAD_REACTORS
330
47
102
}
330
47
100
AcDbScale
 70
     0
300
3/8" = 1'-0"
140
0.375
141
12.0
290
     0
  0
SCALE
  5
62
102
{ACAD_REACTORS
330
47
102
}
330
47
100
AcDbScale
 70
     0
300
1/2" = 1'-0"
140
0.5
141
12.0
290
     0
  0
SCALE
  5
63
102
{ACAD_REACTORS
330
47
102
}
330
47
100
AcDbScale
 70
     0
300
3/4" = 1'-0"
140
0.75
141
12.0
290
     0
  0
SCALE
  5
64
102
{ACAD_REACTORS
330
47
102
}
330
47
100
AcDbScale
 70
     0
300
1" = 1'-0"
140
1.0
141
12.0
290
     0
  0
SCALE
  5
65
102
{ACAD_REACTORS
330
47
102
}
330
47
100
AcDbScale
 70
     0
300
1-1/2" = 1'-0"
140
1.5
141
12.0
290
     0
  0
SCALE
  5
66
102
{ACAD_REACTORS
330
47
102
}
330
47
100
AcDbScale
 70
     0
300
3" = 1'-0"
140
3.0
141
12.0
290
     0
  0
SCALE
  5
67
102
{ACAD_REACTORS
330
47
102
}
330
47
100
AcDbScale
 70
     0
300
6" = 1'-0"
140
6.0
141
12.0
290
     0
  0
SCALE
  5
68
102
{ACAD_REACTORS
330
47
102
}
330
47
100
AcDbScale
 70
     0
300
1'-0" = 1'-0"
140
12.0
141
12.0
290
     0
  0
ENDSEC
  0
EOF
